  0
SECTION
  2
HEADER
  9
$ACADVER
  1
AC1014
  9
$ACADMAINTVER
 70
     5
  9
$DWGCODEPAGE
  3
ANSI_1252
  9
$INSBASE
 10
0.0
 20
0.0
 30
0.0
  9
$EXTMIN
 10
-8.864993
 20
-8.841404
 30
0.0
  9
$EXTMAX
 10
244.790526
 20
447.849028
 30
0.0
  9
$LIMMIN
 10
0.0
 20
0.0
  9
$LIMMAX
 10
420.0
 20
297.0
  9
$ORTHOMODE
 70
     1
  9
$REGENMODE
 70
     1
  9
$FILLMODE
 70
     1
  9
$QTEXTMODE
 70
     0
  9
$MIRRTEXT
 70
     0
  9
$DRAGMODE
 70
     2
  9
$LTSCALE
 40
1.0
  9
$OSMODE
 70
    39
  9
$ATTMODE
 70
     1
  9
$TEXTSIZE
 40
3.5
  9
$TRACEWID
 40
0.05
  9
$TEXTSTYLE
  7
ROMANS
  9
$CLAYER
  8
0
  9
$CELTYPE
  6
BYLAYER
  9
$CECOLOR
 62
   256
  9
$CELTSCALE
 40
1.0
  9
$DELOBJ
 70
     1
  9
$DISPSILH
 70
     0
  9
$DIMSCALE
 40
1.0
  9
$DIMASZ
 40
2.5
  9
$DIMEXO
 40
1.5
  9
$DIMDLI
 40
5.0
  9
$DIMRND
 40
0.0
  9
$DIMDLE
 40
0.0
  9
$DIMEXE
 40
1.0
  9
$DIMTP
 40
0.0
  9
$DIMTM
 40
0.0
  9
$DIMTXT
 40
3.0
  9
$DIMCEN
 40
0.0
  9
$DIMTSZ
 40
0.0
  9
$DIMTOL
 70
     0
  9
$DIMLIM
 70
     0
  9
$DIMTIH
 70
     0
  9
$DIMTOH
 70
     0
  9
$DIMSE1
 70
     0
  9
$DIMSE2
 70
     0
  9
$DIMTAD
 70
     1
  9
$DIMZIN
 70
     8
  9
$DIMBLK
  1

  9
$DIMASO
 70
     1
  9
$DIMSHO
 70
     1
  9
$DIMPOST
  1

  9
$DIMAPOST
  1

  9
$DIMALT
 70
     0
  9
$DIMALTD
 70
     2
  9
$DIMALTF
 40
25.4
  9
$DIMLFAC
 40
1.0
  9
$DIMTOFL
 70
     1
  9
$DIMTVP
 40
0.0
  9
$DIMTIX
 70
     0
  9
$DIMSOXD
 70
     0
  9
$DIMSAH
 70
     0
  9
$DIMBLK1
  1

  9
$DIMBLK2
  1

  9
$DIMSTYLE
  2
STANDAARD
  9
$DIMCLRD
 70
   256
  9
$DIMCLRE
 70
   256
  9
$DIMCLRT
 70
     2
  9
$DIMTFAC
 40
0.75
  9
$DIMGAP
 40
1.0
  9
$DIMJUST
 70
     0
  9
$DIMSD1
 70
     0
  9
$DIMSD2
 70
     0
  9
$DIMTOLJ
 70
     1
  9
$DIMTZIN
 70
     8
  9
$DIMALTZ
 70
     8
  9
$DIMALTTZ
 70
     8
  9
$DIMFIT
 70
     0
  9
$DIMUPT
 70
     0
  9
$DIMUNIT
 70
     2
  9
$DIMDEC
 70
     2
  9
$DIMTDEC
 70
     2
  9
$DIMALTU
 70
     2
  9
$DIMALTTD
 70
     2
  9
$DIMTXSTY
  7
ROMANS
  9
$DIMAUNIT
 70
     0
  9
$LUNITS
 70
     2
  9
$LUPREC
 70
     2
  9
$SKETCHINC
 40
0.1
  9
$FILLETRAD
 40
10.0
  9
$AUNITS
 70
     0
  9
$AUPREC
 70
     2
  9
$MENU
  1
wtb2
  9
$ELEVATION
 40
0.0
  9
$PELEVATION
 40
0.0
  9
$THICKNESS
 40
0.0
  9
$LIMCHECK
 70
     0
  9
$BLIPMODE
 70
     0
  9
$CHAMFERA
 40
1.6
  9
$CHAMFERB
 40
2.5
  9
$CHAMFERC
 40
0.0
  9
$CHAMFERD
 40
0.0
  9
$SKPOLY
 70
     0
  9
$TDCREATE
 40
2452466.423157523
  9
$TDUPDATE
 40
2452466.669287476
  9
$TDINDWG
 40
0.0057054745
  9
$TDUSRTIMER
 40
0.0057054745
  9
$USRTIMER
 70
     1
  9
$ANGBASE
 50
0.0
  9
$ANGDIR
 70
     0
  9
$PDMODE
 70
     3
  9
$PDSIZE
 40
0.0
  9
$PLINEWID
 40
0.0
  9
$COORDS
 70
     2
  9
$SPLFRAME
 70
     0
  9
$SPLINETYPE
 70
     6
  9
$SPLINESEGS
 70
     8
  9
$ATTDIA
 70
     0
  9
$ATTREQ
 70
     1
  9
$HANDLING
 70
     1
  9
$HANDSEED
  5
10D4
  9
$SURFTAB1
 70
     6
  9
$SURFTAB2
 70
     6
  9
$SURFTYPE
 70
     6
  9
$SURFU
 70
     6
  9
$SURFV
 70
     6
  9
$UCSNAME
  2

  9
$UCSORG
 10
0.0
 20
0.0
 30
0.0
  9
$UCSXDIR
 10
1.0
 20
0.0
 30
0.0
  9
$UCSYDIR
 10
0.0
 20
1.0
 30
0.0
  9
$PUCSNAME
  2

  9
$PUCSORG
 10
0.0
 20
0.0
 30
0.0
  9
$PUCSXDIR
 10
1.0
 20
0.0
 30
0.0
  9
$PUCSYDIR
 10
0.0
 20
1.0
 30
0.0
  9
$USERI1
 70
     0
  9
$USERI2
 70
     0
  9
$USERI3
 70
     0
  9
$USERI4
 70
     0
  9
$USERI5
 70
     0
  9
$USERR1
 40
0.0
  9
$USERR2
 40
0.0
  9
$USERR3
 40
0.0
  9
$USERR4
 40
0.0
  9
$USERR5
 40
0.0
  9
$WORLDVIEW
 70
     1
  9
$SHADEDGE
 70
     3
  9
$SHADEDIF
 70
    70
  9
$TILEMODE
 70
     1
  9
$MAXACTVP
 70
    16
  9
$PINSBASE
 10
0.0
 20
0.0
 30
0.0
  9
$PLIMCHECK
 70
     0
  9
$PEXTMIN
 10
1.000000E+20
 20
1.000000E+20
 30
1.000000E+20
  9
$PEXTMAX
 10
-1.000000E+20
 20
-1.000000E+20
 30
-1.000000E+20
  9
$PLIMMIN
 10
0.0
 20
0.0
  9
$PLIMMAX
 10
12.0
 20
9.0
  9
$UNITMODE
 70
     0
  9
$VISRETAIN
 70
     0
  9
$PLINEGEN
 70
     0
  9
$PSLTSCALE
 70
     0
  9
$TREEDEPTH
 70
  3020
  9
$PICKSTYLE
 70
     1
  9
$CMLSTYLE
  2
STANDARD
  9
$CMLJUST
 70
     0
  9
$CMLSCALE
 40
1.0
  9
$PROXYGRAPHICS
 70
     1
  9
$MEASUREMENT
 70
     1
  0
ENDSEC
  0
SECTION
  2
CLASSES
  0
CLASS
  1
LWPOLYLINE
  2
AcDbPolyline
  3
"AutoCAD"
 90
        0
280
     0
281
     1
  0
CLASS
  1
AMLOADER
  2
AMLoader
  3
AMAcad
 90
        0
280
     0
281
     0
  0
ENDSEC
  0
SECTION
  2
TABLES
  0
TABLE
  2
VPORT
  5
8
100
AcDbSymbolTable
 70
     2
  0
VPORT
  5
10D3
100
AcDbSymbolTableRecord
100
AcDbViewportTableRecord
  2
*ACTIVE
 70
     0
 10
0.0
 20
0.0
 11
1.0
 21
1.0
 12
117.962767
 22
219.503812
 13
0.0
 23
0.0
 14
2.5
 24
2.5
 15
5.0
 25
5.0
 16
0.0
 26
0.0
 36
1.0
 17
0.0
 27
0.0
 37
0.0
 40
461.831412
 41
1.650376
 42
50.0
 43
0.0
 44
0.0
 50
0.0
 51
0.0
 71
     0
 72
 20000
 73
     1
 74
     0
 75
     0
 76
     0
 77
     0
 78
     1
  0
ENDTAB
  0
TABLE
  2
LTYPE
  5
5
100
AcDbSymbolTable
 70
     1
  0
LTYPE
  5
12
100
AcDbSymbolTableRecord
100
AcDbLinetypeTableRecord
  2
BYBLOCK
 70
     0
  3

 72
    65
 73
     0
 40
0.0
  0
LTYPE
  5
13
100
AcDbSymbolTableRecord
100
AcDbLinetypeTableRecord
  2
BYLAYER
 70
     0
  3

 72
    65
 73
     0
 40
0.0
  0
LTYPE
  5
14
100
AcDbSymbolTableRecord
100
AcDbLinetypeTableRecord
  2
CONTINUOUS
 70
     0
  3
Solid line
 72
    65
 73
     0
 40
0.0
  0
ENDTAB
  0
TABLE
  2
LAYER
  5
2
100
AcDbSymbolTable
 70
     4
  0
LAYER
  5
F
100
AcDbSymbolTableRecord
100
AcDbLayerTableRecord
  2
0
 70
     0
 62
     8
  6
CONTINUOUS
  0
LAYER
  5
99A
100
AcDbSymbolTableRecord
100
AcDbLayerTableRecord
  2
VHH-050
 70
     0
 62
     4
  6
CONTINUOUS
  0
LAYER
  5
99B
100
AcDbSymbolTableRecord
100
AcDbLayerTableRecord
  2
VHH-025
 70
     0
 62
     7
  6
CONTINUOUS
  0
LAYER
  5
99C
100
AcDbSymbolTableRecord
100
AcDbLayerTableRecord
  2
VHH-070
 70
     0
 62
     4
  6
CONTINUOUS
  0
ENDTAB
  0
TABLE
  2
STYLE
  5
3
100
AcDbSymbolTable
 70
     2
  0
STYLE
  5
10
100
AcDbSymbolTableRecord
100
AcDbTextStyleTableRecord
  2
STANDARD
 70
     0
 40
0.0
 41
1.0
 50
0.0
 71
     0
 42
15.0
  3
txt
  4

  0
STYLE
  5
1C
100
AcDbSymbolTableRecord
100
AcDbTextStyleTableRecord
  2
ROMANS
 70
     0
 40
0.0
 41
1.0
 50
0.0
 71
     0
 42
3.5
  3
romans
  4

  0
ENDTAB
  0
TABLE
  2
VIEW
  5
6
100
AcDbSymbolTable
 70
     2
  0
VIEW
  5
600
100
AcDbSymbolTableRecord
100
AcDbViewTableRecord
  2
VIEW0
 70
     0
 40
297.0
 10
210.0
 20
148.5
 41
420.0
 11
0.0
 21
0.0
 31
1.0
 12
0.0
 22
0.0
 32
0.0
 42
50.0
 43
0.0
 44
0.0
 50
0.0
 71
     0
  0
VIEW
  5
601
100
AcDbSymbolTableRecord
100
AcDbViewTableRecord
  2
VIEW1
 70
     0
 40
297.0
 10
210.0
 20
148.5
 41
420.0
 11
0.0
 21
0.0
 31
1.0
 12
0.0
 22
0.0
 32
0.0
 42
50.0
 43
0.0
 44
0.0
 50
0.0
 71
     0
  0
ENDTAB
  0
TABLE
  2
UCS
  5
7
100
AcDbSymbolTable
 70
     0
  0
ENDTAB
  0
TABLE
  2
APPID
  5
9
100
AcDbSymbolTable
 70
     3
  0
APPID
  5
11
100
AcDbSymbolTableRecord
100
AcDbRegAppTableRecord
  2
ACAD
 70
     0
  0
APPID
  5
37E
100
AcDbSymbolTableRecord
100
AcDbRegAppTableRecord
  2
ADMEPROFILELINK
 70
     0
  0
APPID
  5
974
100
AcDbSymbolTableRecord
100
AcDbRegAppTableRecord
  2
AMACAD
 70
     0
  0
ENDTAB
  0
TABLE
  2
DIMSTYLE
  5
A
100
AcDbSymbolTable
 70
     2
  0
DIMSTYLE
105
4E
100
AcDbSymbolTableRecord
100
AcDbDimStyleTableRecord
  2
STANDARD
 70
     0
  3

  4

  5

  6

  7

 40
1.0
 41
2.2
 42
1.5
 43
7.0
 44
1.2
 45
0.0
 46
0.0
 47
0.0
 48
0.0
140
2.5
141
-3.0
142
0.0
143
25.4
144
1.0
145
0.0
146
1.0
147
0.5
 71
     0
 72
     0
 73
     0
 74
     0
 75
     0
 76
     0
 77
     1
 78
     8
170
     0
171
     2
172
     1
173
     0
174
     0
175
     0
176
   256
177
   256
178
     2
270
     2
271
     4
272
     4
273
     2
274
     2
340
10
275
     0
280
     0
281
     0
282
     0
283
     1
284
     0
285
     0
286
     0
287
     3
288
     0
  0
DIMSTYLE
105
190
100
AcDbSymbolTableRecord
100
AcDbDimStyleTableRecord
  2
STANDAARD
 70
     0
  3

  4

  5

  6

  7

 40
1.0
 41
2.5
 42
1.5
 43
5.0
 44
1.0
 45
0.0
 46
0.0
 47
0.0
 48
0.0
140
3.0
141
0.0
142
0.0
143
25.4
144
1.0
145
0.0
146
0.75
147
1.0
 71
     0
 72
     0
 73
     0
 74
     0
 75
     0
 76
     0
 77
     1
 78
     8
170
     0
171
     2
172
     1
173
     0
174
     0
175
     0
176
   256
177
   256
178
     2
270
     2
271
     2
272
     2
273
     2
274
     2
340
1C
275
     0
280
     0
281
     0
282
     0
283
     1
284
     8
285
     8
286
     8
287
     0
288
     0
  0
ENDTAB
  0
TABLE
  2
BLOCK_RECORD
  5
1
100
AcDbSymbolTable
 70
     4
  0
BLOCK_RECORD
  5
18
100
AcDbSymbolTableRecord
100
AcDbBlockTableRecord
  2
*MODEL_SPACE
  0
BLOCK_RECORD
  5
15
100
AcDbSymbolTableRecord
100
AcDbBlockTableRecord
  2
*PAPER_SPACE
  0
BLOCK_RECORD
  5
1B2
100
AcDbSymbolTableRecord
100
AcDbBlockTableRecord
  2
TEK_INFO
  0
BLOCK_RECORD
  5
98B
100
AcDbSymbolTableRecord
100
AcDbBlockTableRecord
  2
A$C7A7B4A19
  0
BLOCK_RECORD
  5
990
100
AcDbSymbolTableRecord
100
AcDbBlockTableRecord
  2
A$C605007EB
  0
BLOCK_RECORD
  5
995
100
AcDbSymbolTableRecord
100
AcDbBlockTableRecord
  2
A$C32063EEB
  0
ENDTAB
  0
ENDSEC
  0
SECTION
  2
BLOCKS
  0
BLOCK
  5
46
100
AcDbEntity
  8
0
100
AcDbBlockBegin
  2
*MODEL_SPACE
 70
     0
 10
0.0
 20
0.0
 30
0.0
  3
*MODEL_SPACE
  1

  0
ENDBLK
  5
47
100
AcDbEntity
  8
0
100
AcDbBlockEnd
  0
BLOCK
  5
44
100
AcDbEntity
 67
     1
  8
0
100
AcDbBlockBegin
  2
*PAPER_SPACE
 70
     0
 10
0.0
 20
0.0
 30
0.0
  3
*PAPER_SPACE
  1

  0
ENDBLK
  5
45
100
AcDbEntity
 67
     1
  8
0
100
AcDbBlockEnd
  0
BLOCK
  5
1B9
100
AcDbEntity
  8
0
100
AcDbBlockBegin
  2
TEK_INFO
 70
     2
 10
0.0
 20
0.0
 30
0.0
  3
TEK_INFO
  1

  0
ATTDEF
  5
276
100
AcDbEntity
  8
0
100
AcDbText
 10
15.0
 20
31.5
 30
0.0
 40
2.5
  1
A3
  7
ROMANS
100
AcDbAttributeDefinition
  3

  2
FORMAAT
 70
     9
  0
ATTDEF
  5
277
100
AcDbEntity
  8
0
100
AcDbText
 10
15.0
 20
27.5
 30
0.0
 40
2.5
  1
hor
  7
ROMANS
100
AcDbAttributeDefinition
  3

  2
POSITIE
 70
     9
  0
ATTDEF
  5
278
100
AcDbEntity
  8
0
100
AcDbText
 10
15.0
 20
23.5
 30
0.0
 40
2.5
  1
1
  7
ROMANS
100
AcDbAttributeDefinition
  3

  2
AANTAL
 70
     9
  0
ATTDEF
  5
279
100
AcDbEntity
  8
0
100
AcDbText
 10
15.0
 20
19.5
 30
0.0
 40
2.5
  1
1
  7
ROMANS
100
AcDbAttributeDefinition
  3

  2
TEKSCHAAL
 70
     9
  0
ATTDEF
  5
27A
100
AcDbEntity
  8
0
100
AcDbText
 10
15.0
 20
15.5
 30
0.0
 40
2.5
  1
1
  7
ROMANS
100
AcDbAttributeDefinition
  3

  2
SNAPSCHAAL
 70
     9
  0
ATTDEF
  5
27B
100
AcDbEntity
  8
0
100
AcDbText
 10
15.0
 20
11.5
 30
0.0
 40
2.5
  1
1
  7
ROMANS
100
AcDbAttributeDefinition
  3

  2
BLADAANTAL
 70
     9
  0
ENDBLK
  5
1BA
100
AcDbEntity
  8
0
100
AcDbBlockEnd
  0
BLOCK
  5
98E
100
AcDbEntity
  8
0
100
AcDbBlockBegin
  2
A$C7A7B4A19
 70
     0
 10
0.0
 20
0.0
 30
0.0
  3
A$C7A7B4A19
  1

  0
LINE
  5
98C
100
AcDbEntity
  8
VHH-050
100
AcDbLine
 10
0.000002
 20
17.677669
 30
0.0
 11
35.355341
 21
17.677669
 31
0.0
  0
LINE
  5
98D
100
AcDbEntity
  8
VHH-050
100
AcDbLine
 10
17.677671
 20
-0.000001
 30
0.0
 11
17.677671
 21
35.355338
 31
0.0
  0
ENDBLK
  5
98F
100
AcDbEntity
  8
0
100
AcDbBlockEnd
  0
BLOCK
  5
993
100
AcDbEntity
  8
0
100
AcDbBlockBegin
  2
A$C605007EB
 70
     0
 10
0.0
 20
0.0
 30
0.0
  3
A$C605007EB
  1

  0
LINE
  5
991
100
AcDbEntity
  8
VHH-050
100
AcDbLine
 10
0.000002
 20
25.000002
 30
0.0
 11
25.000002
 21
0.000002
 31
0.0
  0
LINE
  5
992
100
AcDbEntity
  8
VHH-050
100
AcDbLine
 10
0.000002
 20
0.000002
 30
0.0
 11
25.000002
 21
25.000002
 31
0.0
  0
ENDBLK
  5
994
100
AcDbEntity
  8
0
100
AcDbBlockEnd
  0
BLOCK
  5
998
100
AcDbEntity
  8
0
100
AcDbBlockBegin
  2
A$C32063EEB
 70
     0
 10
0.0
 20
0.0
 30
0.0
  3
A$C32063EEB
  1

  0
CIRCLE
  5
996
100
AcDbEntity
  8
VHH-050
100
AcDbCircle
 10
8.838839
 20
8.838837
 30
0.0
 40
1.838835
  0
CIRCLE
  5
997
100
AcDbEntity
  8
VHH-050
100
AcDbCircle
 10
8.838839
 20
8.838837
 30
0.0
 40
8.838835
  0
ENDBLK
  5
999
100
AcDbEntity
  8
0
100
AcDbBlockEnd
  0
ENDSEC
  0
SECTION
  2
ENTITIES
  0
INSERT
  5
27C
100
AcDbEntity
  8
0
100
AcDbBlockReference
 66
     1
  2
TEK_INFO
 10
0.0
 20
0.0
 30
0.0
  0
ATTRIB
  5
27D
100
AcDbEntity
  8
0
100
AcDbText
 10
15.0
 20
31.5
 30
0.0
 40
2.5
  1
A3
  7
ROMANS
100
AcDbAttribute
  2
FORMAAT
 70
     9
  0
ATTRIB
  5
27E
100
AcDbEntity
  8
0
100
AcDbText
 10
15.0
 20
27.5
 30
0.0
 40
2.5
  1
hor
  7
ROMANS
100
AcDbAttribute
  2
POSITIE
 70
     9
  0
ATTRIB
  5
27F
100
AcDbEntity
  8
0
100
AcDbText
 10
15.0
 20
23.5
 30
0.0
 40
2.5
  1
1
  7
ROMANS
100
AcDbAttribute
  2
AANTAL
 70
     9
  0
ATTRIB
  5
280
100
AcDbEntity
  8
0
100
AcDbText
 10
15.0
 20
19.5
 30
0.0
 40
2.5
  1
1
  7
ROMANS
100
AcDbAttribute
  2
TEKSCHAAL
 70
     9
  0
ATTRIB
  5
281
100
AcDbEntity
  8
0
100
AcDbText
 10
15.0
 20
15.5
 30
0.0
 40
2.5
  1
1
  7
ROMANS
100
AcDbAttribute
  2
SNAPSCHAAL
 70
     9
  0
ATTRIB
  5
282
100
AcDbEntity
  8
0
100
AcDbText
 10
15.0
 20
11.5
 30
0.0
 40
2.5
  1
1
  7
ROMANS
100
AcDbAttribute
  2
BLADAANTAL
 70
     9
  0
SEQEND
  5
283
100
AcDbEntity
  8
0
  0
LINE
  5
D3C
100
AcDbEntity
  8
VHH-025
100
AcDbLine
 10
11.875437
 20
358.2
 30
0.0
 11
232.956914
 21
358.2
 31
0.0
  0
LINE
  5
D3D
100
AcDbEntity
  8
VHH-025
100
AcDbLine
 10
11.22181
 20
359.2
 30
0.0
 11
233.563843
 21
359.2
 31
0.0
  0
SPLINE
  5
D3E
100
AcDbEntity
  8
VHH-025
100
AcDbSpline
210
0.0
220
0.0
230
-1.0
 70
     8
 71
     3
 72
    15
 73
    11
 74
     9
 42
0.0000001
 43
0.0000001
 44
0.0000000001
 40
0.0
 40
0.0
 40
0.0
 40
0.0
 40
8.727930916723018
 40
16.2576332325584
 40
20.36216076943345
 40
21.62307303412775
 40
23.69549543386585
 40
25.38624445710642
 40
45.72281463409085
 40
79.43205808847233
 40
79.43205808847233
 40
79.43205808847233
 40
79.43205808847233
 10
17.25590066246695
 20
421.700000154682
 30
0.0
 10
17.95467921952898
 20
424.5165902787387
 30
0.0
 10
19.25630335013749
 20
429.7630902384967
 30
0.0
 10
21.18639030714159
 20
436.3571665177065
 30
0.0
 10
23.49280898512494
 20
439.9812058379051
 30
0.0
 10
25.03106280405777
 20
441.982460510472
 30
0.0
 10
26.72081037730095
 20
442.5205618189426
 30
0.0
 10
34.65683309634085
 20
443.3052661239023
 30
0.0
 10
53.21775558598002
 20
445.2216375837607
 30
0.0
 10
71.18584189963737
 20
446.2672750766846
 30
0.0
 10
82.39282640518467
 20
446.9194560033038
 30
0.0
 11
17.25590066246695
 21
421.700000154682
 31
0.0
 11
19.42123455124783
 21
430.1550641542735
 31
0.0
 11
21.92075664643198
 21
437.2577964637994
 31
0.0
 11
24.08919188655818
 21
440.7427691911452
 31
0.0
 11
24.92500615912649
 21
441.6868635937489
 31
0.0
 11
26.84115452061632
 21
442.4763634732271
 31
0.0
 11
28.517263158501
 21
442.6983817013015
 31
0.0
 11
48.76028116016641
 21
444.6467935539812
 31
0.0
 11
82.39282640518467
 21
446.9194560033038
 31
0.0
  0
LINE
  5
D3F
100
AcDbEntity
  8
VHH-025
100
AcDbLine
 10
66.604641
 20
388.953206
 30
0.0
 11
44.31485
 21
387.806981
 31
0.0
  0
ARC
  5
D40
100
AcDbEntity
  8
VHH-025
100
AcDbCircle
 10
59.101692
 20
390.832858
 30
0.0
 40
0.5
100
AcDbArc
 50
273.09421
 51
359.745727
  0
LINE
  5
D41
100
AcDbEntity
  8
VHH-025
100
AcDbLine
 10
44.284525
 20
423.934137
 30
0.0
 11
66.628294
 21
424.978119
 31
0.0
  0
ARC
  5
D42
100
AcDbEntity
  8
VHH-025
100
AcDbCircle
 10
59.240646
 20
422.143273
 30
0.0
 40
0.5
100
AcDbArc
 50
359.745727
 51
92.817949
  0
LWPOLYLINE
  5
D4D
100
AcDbEntity
  8
VHH-025
100
AcDbPolyline
 90
       10
 70
     0
 43
0.0
 10
7.552635
 20
20.5
 10
6.390652
 20
20.5
 42
-0.414214
 10
5.390652
 20
21.5
 10
5.390652
 20
56.5
 42
-0.414214
 10
6.390652
 20
57.5
 10
238.388476
 20
57.5
 42
-0.414214
 10
239.388476
 20
56.5
 10
239.388476
 20
21.5
 42
-0.414214
 10
238.388476
 20
20.5
 10
237.226493
 20
20.5
  0
LINE
  5
D4E
100
AcDbEntity
  8
VHH-025
100
AcDbLine
 10
12.435017
 20
59.500177
 30
0.0
 11
232.344111
 21
59.500177
 31
0.0
  0
LINE
  5
D4F
100
AcDbEntity
  8
VHH-025
100
AcDbLine
 10
1.580954
 20
0.0
 30
0.0
 11
122.389564
 21
0.0
 31
0.0
  0
LINE
  5
D50
100
AcDbEntity
  8
VHH-025
100
AcDbLine
 10
8.539386
 20
55.140004
 30
0.0
 11
122.389564
 21
55.140004
 31
0.0
  0
LINE
  5
D60
100
AcDbEntity
  8
VHH-025
100
AcDbLine
 10
22.077377
 20
357.708899
 30
0.0
 11
21.950261
 21
62.425449
 31
0.0
  0
LINE
  5
D61
100
AcDbEntity
  8
VHH-025
100
AcDbLine
 10
7.390652
 20
57.5
 30
0.0
 11
7.390652
 21
421.7
 31
0.0
  0
LINE
  5
D62
100
AcDbEntity
  8
VHH-025
100
AcDbLine
 10
16.190652
 20
86.71489
 30
0.0
 11
16.190652
 21
339.249153
 31
0.0
  0
CIRCLE
  5
D8A
100
AcDbEntity
  8
VHH-025
100
AcDbCircle
 10
47.390652
 20
77.5
 30
0.0
 40
11.0
  0
SPLINE
  5
D8B
100
AcDbEntity
  8
VHH-025
100
AcDbSpline
210
0.0
220
0.0
230
-1.0
 70
     8
 71
     3
 72
    14
 73
    10
 74
     8
 42
0.0000001
 43
0.0000001
 44
0.0000000001
 40
0.0
 40
0.0
 40
0.0
 40
0.0
 40
11.0509288818075
 40
19.1170155533585
 40
21.83833101109244
 40
23.82063570679606
 40
25.41815743345509
 40
26.54338131689998
 40
27.54198087681952
 40
27.54198087681952
 40
27.54198087681952
 40
27.54198087681952
 10
11.21826822762523
 20
60.01097835698146
 30
0.0
 10
11.40099837364285
 20
63.70068459104512
 30
0.0
 10
11.71710347945319
 20
70.0835119730979
 30
0.0
 10
12.86206117024082
 20
77.21914190561375
 30
0.0
 10
13.49856046279097
 20
81.5089074519285
 30
0.0
 10
14.70056905326635
 20
83.26955388922304
 30
0.0
 10
15.74472172178331
 20
84.46387087646428
 30
0.0
 10
16.10783275259068
 20
85.67785837911776
 30
0.0
 10
16.16416490804881
 20
86.38323114479252
 30
0.0
 10
16.19065169809982
 20
86.71489003837086
 30
0.0
 11
11.21826822762523
 21
60.01097835698146
 31
0.0
 11
11.99575319856194
 21
71.0345234433289
 31
0.0
 11
13.1266943195169
 21
79.02093229674392
 31
0.0
 11
13.75725950261949
 21
81.66818471583065
 31
0.0
 11
14.80817573658169
 21
83.34899017030876
 31
0.0
 11
15.73298279459959
 21
84.65160583603211
 31
0.0
 11
16.07783054801984
 21
85.72268417809482
 31
0.0
 11
16.19065169809982
 21
86.71489003837086
 31
0.0
  0
SPLINE
  5
D8C
100
AcDbEntity
  8
VHH-025
100
AcDbSpline
210
0.0
220
0.0
230
1.0
 70
     8
 71
     3
 72
    14
 73
    10
 74
     8
 42
0.0000001
 43
0.0000001
 44
0.0000000001
 40
0.0
 40
0.0
 40
0.0
 40
0.0
 40
6.706404132124436
 40
15.26849006360835
 40
19.65418868062623
 40
21.78101070170207
 40
23.77997609944395
 40
25.24609195193347
 40
26.08908231895164
 40
26.08908231895164
 40
26.08908231895164
 40
26.08908231895164
 10
18.10385990755094
 20
59.99972846093715
 30
0.0
 10
18.09373796335746
 20
62.23526214110735
 30
0.0
 10
18.07069330316434
 20
67.32490826294463
 30
0.0
 10
17.98559970393131
 20
73.87443901661874
 30
0.0
 10
17.80870622205481
 20
78.89999970907158
 30
0.0
 10
17.57909299699891
 20
81.72474652643385
 30
0.0
 10
17.41895561737054
 20
83.59065053650773
 30
0.0
 10
16.99393289718848
 20
84.96789494346634
 30
0.0
 10
16.75057111546976
 20
85.6977209458882
 30
0.0
 10
16.66172650712906
 20
85.96416009210134
 30
0.0
 11
18.10385990755094
 21
59.99972846093715
 31
0.0
 11
18.06518657844572
 21
66.70602108480853
 31
0.0
 11
17.92559138789511
 21
75.26696896929479
 31
0.0
 11
17.7371820110111
 21
79.64861868897969
 31
0.0
 11
17.5738233116881
 21
81.76915773476229
 31
0.0
 11
17.32295061529657
 21
83.75231823042941
 31
0.0
 11
16.92618765197585
 21
85.16372704571223
 31
0.0
 11
16.66172650712906
 21
85.96416009210134
 31
0.0
  0
CIRCLE
  5
D8D
100
AcDbEntity
  8
VHH-025
100
AcDbCircle
 10
47.390652
 20
77.5
 30
0.0
 40
10.0
  0
SPLINE
  5
DA8
100
AcDbEntity
  8
VHH-025
100
AcDbSpline
210
0.0
220
0.0
230
1.0
 70
     8
 71
     3
 72
    10
 73
     6
 74
     4
 42
0.0000001
 43
0.0000001
 44
0.0000000001
 40
0.0
 40
0.0
 40
0.0
 40
0.0
 40
0.3816052292274963
 40
0.5746288017465801
 40
1.481778013365268
 40
1.481778013365268
 40
1.481778013365268
 40
1.481778013365268
 10
11.21826822762523
 20
60.01097835698146
 30
0.0
 10
11.24137534218466
 20
59.8720598840967
 30
0.0
 10
11.27617049836736
 20
59.66287366362526
 30
0.0
 10
11.76755565616459
 20
59.48002301032243
 30
0.0
 10
12.13337782019448
 20
59.49106921559848
 30
0.0
 10
12.43501706493589
 20
59.50017738165389
 30
0.0
 11
11.21826822762523
 21
60.01097835698146
 31
0.0
 11
11.35628322423326
 21
59.6552053792484
 31
0.0
 11
11.53076860983674
 21
59.57266478463679
 31
0.0
 11
12.43501706493589
 21
59.50017738165389
 31
0.0
  0
LINE
  5
DA9
100
AcDbEntity
  8
VHH-025
100
AcDbLine
 10
8.108643
 20
0.0
 30
0.0
 11
8.539386
 21
55.140004
 31
0.0
  0
LINE
  5
DAA
100
AcDbEntity
  8
VHH-025
100
AcDbLine
 10
7.389564
 20
0.0
 30
0.0
 11
7.839074
 21
56.508727
 31
0.0
  0
LINE
  5
DAB
100
AcDbEntity
  8
VHH-025
100
AcDbLine
 10
0.0
 20
1.0
 30
0.0
 11
1.722356
 21
39.559818
 31
0.0
  0
LINE
  5
DAC
100
AcDbEntity
  8
VHH-025
100
AcDbLine
 10
7.397519
 20
1.0
 30
0.0
 11
0.0
 21
1.0
 31
0.0
  0
LINE
  5
DAD
100
AcDbEntity
  8
VHH-025
100
AcDbLine
 10
1.580954
 20
0.0
 30
0.0
 11
1.580954
 21
1.0
 31
0.0
  0
ARC
  5
DAE
100
AcDbEntity
  8
VHH-025
100
AcDbCircle
 10
11.554291
 20
59.062386
 30
0.0
 40
0.641074
100
AcDbArc
 50
354.449296
 51
43.070919
  0
LINE
  5
DAF
100
AcDbEntity
  8
VHH-025
100
AcDbLine
 10
3.066349
 20
40.5
 30
0.0
 11
5.390652
 21
40.5
 31
0.0
  0
ARC
  5
DB0
100
AcDbEntity
  8
VHH-025
100
AcDbCircle
 10
2.746228
 20
39.487588
 30
0.0
 40
1.026416
100
AcDbArc
 50
80.52442
 51
175.964714
  0
ARC
  5
DB1
100
AcDbEntity
  8
VHH-025
100
AcDbCircle
 10
8.839036
 20
56.5
 30
0.0
 40
1.0
100
AcDbArc
 50
90.000004
 51
179.500001
  0
LINE
  5
DB2
100
AcDbEntity
  8
VHH-025
100
AcDbLine
 10
12.192359
 20
59.000377
 30
0.0
 11
12.192359
 21
57.5
 31
0.0
  0
INSERT
  5
DB3
100
AcDbEntity
  8
VHH-050
100
AcDbBlockReference
  2
A$C32063EEB
 10
-8.838839
 20
-8.838837
 30
0.0
  0
ELLIPSE
  5
E1F
100
AcDbEntity
  8
VHH-025
100
AcDbEllipse
 10
50.878282
 20
399.652897
 30
0.0
 11
-0.5847090253523675
 21
-3.845560362166452
 31
0.0
210
0.0
220
0.0
230
1.0
 40
0.934504
 41
0.0
 42
6.283185307179586
  0
LWPOLYLINE
  5
E20
100
AcDbEntity
  8
VHH-025
100
AcDbPolyline
 90
        3
 70
     0
 43
0.0
 10
17.255901
 20
421.7
 10
19.492342
 20
421.7
 10
17.20877
 20
378.085357
  0
LINE
  5
E21
100
AcDbEntity
  8
VHH-025
100
AcDbLine
 10
24.377869
 20
440.407869
 30
0.0
 11
22.098347
 21
359.2
 31
0.0
  0
LINE
  5
E22
100
AcDbEntity
  8
VHH-025
100
AcDbLine
 10
43.964393
 20
393.654525
 30
0.0
 11
45.019996
 21
420.120205
 31
0.0
  0
LINE
  5
E23
100
AcDbEntity
  8
VHH-025
100
AcDbLine
 10
42.636427
 20
389.341991
 30
0.0
 11
42.60337
 21
422.238518
 31
0.0
  0
LINE
  5
E24
100
AcDbEntity
  8
VHH-025
100
AcDbLine
 10
58.97892
 20
421.013646
 30
0.0
 11
57.92507
 21
394.217127
 31
0.0
  0
SPLINE
  5
E25
100
AcDbEntity
  8
VHH-025
100
AcDbSpline
210
0.0
220
0.0
230
-1.0
 70
     8
 71
     3
 72
    17
 73
    13
 74
    11
 42
0.0000001
 43
0.0000001
 44
0.0000000001
 40
0.0
 40
0.0
 40
0.0
 40
0.0
 40
0.5545798661035835
 40
1.653562178450133
 40
2.750923934510056
 40
3.84857121251088
 40
4.674193321129878
 40
5.488636099266649
 40
8.524172564827232
 40
12.84394436806105
 40
16.51294489443565
 40
20.18194542081142
 40
20.18194542081142
 40
20.18194542081142
 40
20.18194542081142
 10
17.20876980518187
 20
378.0853574984494
 30
0.0
 10
17.18085999974716
 20
377.9026698175611
 30
0.0
 10
17.09764277262532
 20
377.3579593835021
 30
0.0
 10
16.8633114392149
 20
376.4646237353082
 30
0.0
 10
16.33197633942112
 20
375.4910481188898
 30
0.0
 10
15.66296284893337
 20
374.7299702545467
 30
0.0
 10
14.94545764559376
 20
374.1564970038732
 30
0.0
 10
14.07223185522822
 20
372.8443091403942
 30
0.0
 10
13.257777494438
 20
370.221598923355
 30
0.0
 10
12.20542450138733
 20
366.6990277768238
 30
0.0
 10
11.77567229798289
 20
362.8252619162185
 30
0.0
 10
11.40643059656455
 20
360.4084207388918
 30
0.0
 10
11.22180974585535
 20
359.2000001502283
 30
0.0
 11
17.20876980518187
 21
378.0853574984494
 31
0.0
 11
17.11855711399039
 21
377.5381642069742
 31
0.0
 11
16.82131440621924
 21
376.4801429900189
 31
0.0
 11
16.29900871058817
 21
375.5150525362405
 31
0.0
 11
15.57728009890524
 21
374.6880474830632
 31
0.0
 11
14.97383253238695
 21
374.1245735256315
 31
0.0
 11
14.50204981065326
 21
373.4606924351246
 31
0.0
 11
13.39110893293218
 21
370.6357513738002
 31
0.0
 11
12.2801680552111
 21
366.4612767004764
 31
0.0
 11
11.75098890053414
 21
362.8306384253528
 31
0.0
 11
11.22180974585535
 21
359.2000001502283
 31
0.0
  0
SPLINE
  5
E26
100
AcDbEntity
  8
VHH-025
100
AcDbSpline
210
0.0
220
0.0
230
1.0
 70
     8
 71
     3
 72
    13
 73
     9
 74
     7
 42
0.0000001
 43
0.0000001
 44
0.0000000001
 40
0.0
 40
0.0
 40
0.0
 40
0.0
 40
5.157331242126769
 40
11.03348381863751
 40
14.61916662718399
 40
16.78242660352368
 40
17.8917438422128
 40
18.52503597702071
 40
18.52503597702071
 40
18.52503597702071
 40
18.52503597702071
 10
17.85320735390087
 20
359.2000001114847
 30
0.0
 10
17.94222313459656
 20
360.9169780778863
 30
0.0
 10
18.13266158615205
 20
364.5902439046973
 30
0.0
 10
18.26144551568881
 20
369.4602549082189
 30
0.0
 10
18.28256830301883
 20
373.3399900125466
 30
0.0
 10
18.03705301970664
 20
375.6167616270009
 30
0.0
 10
17.75895604909639
 20
376.8932364663017
 30
0.0
 10
17.55513915742777
 20
377.4376587941421
 30
0.0
 10
17.48106883713808
 20
377.6355105809388
 30
0.0
 11
17.85320735390087
 21
359.2000001114847
 31
0.0
 11
18.09988263614832
 21
364.3514287333473
 31
0.0
 11
18.25610594289537
 21
370.2255042674942
 31
0.0
 11
18.20102837279773
 21
373.8107640439648
 31
0.0
 11
17.94870062934933
 21
375.959257570862
 31
0.0
 11
17.69274797655453
 21
377.0386430328635
 31
0.0
 11
17.48106883713808
 21
377.6355105809388
 31
0.0
  0
SPLINE
  5
E27
100
AcDbEntity
  8
VHH-025
100
AcDbSpline
210
0.0
220
0.0
230
-1.0
 70
     8
 71
     3
 72
    11
 73
     7
 74
     5
 42
0.0000001
 43
0.0000001
 44
0.0000000001
 40
0.0
 40
0.0
 40
0.0
 40
0.0
 40
0.2640450802022504
 40
0.4702127552010066
 40
0.7109238314965434
 40
0.9626525607754041
 40
0.9626525607754041
 40
0.9626525607754041
 40
0.9626525607754041
 10
11.8754373214233
 20
358.2000001475134
 30
0.0
 10
11.78830540804953
 20
358.1986271830204
 30
0.0
 10
11.6331404755235
 20
358.1961822012143
 30
0.0
 10
11.38761714458273
 20
358.1451926325184
 30
0.0
 10
11.25887717146285
 20
357.9277118352421
 30
0.0
 10
11.22139477964703
 20
357.7694632901751
 30
0.0
 10
11.20223427565179
 20
357.6885687225367
 30
0.0
 11
11.8754373214233
 21
358.2000001475134
 31
0.0
 11
11.61176272183183
 21
358.1860176617083
 31
0.0
 11
11.41486794231787
 21
358.1248821072859
 31
0.0
 11
11.27363452378449
 21
357.9299591898525
 31
0.0
 11
11.20223427565179
 21
357.6885687225367
 31
0.0
  0
SPLINE
  5
E28
100
AcDbEntity
  8
VHH-025
100
AcDbSpline
210
0.0
220
0.0
230
-1.0
 70
     8
 71
     3
 72
    13
 73
     9
 74
     7
 42
0.0000001
 43
0.0000001
 44
0.0000000001
 40
0.0
 40
0.0
 40
0.0
 40
0.0
 40
6.026680851531978
 40
11.00810038444467
 40
13.94509459379527
 40
15.52490769264459
 40
17.06497796643979
 40
19.47261726715417
 40
19.47261726715417
 40
19.47261726715417
 40
19.47261726715417
 10
11.20223427565179
 20
357.6885687225367
 30
0.0
 10
11.30585647101173
 20
355.6783244264739
 30
0.0
 10
11.49512873491282
 20
352.0064905342428
 30
0.0
 10
12.43482802226039
 20
347.451856828255
 30
0.0
 10
13.41724660396824
 20
344.4042488626184
 30
0.0
 10
14.5552352431801
 20
342.7277519215171
 30
0.0
 10
15.98811682993774
 20
341.4631596216597
 30
0.0
 10
16.1139240600227
 20
340.0879001610803
 30
0.0
 10
16.19065169809982
 20
339.2491533729808
 30
0.0
 11
11.20223427565179
 21
357.6885687225367
 31
0.0
 11
11.67870694686826
 21
351.6807524903433
 31
0.0
 11
12.68555349635244
 21
346.8021460716336
 31
0.0
 11
13.71890362743397
 21
344.0529420973252
 31
0.0
 11
14.61977445735647
 21
342.7551589200993
 31
0.0
 11
15.62662100684429
 21
341.5897935379071
 31
0.0
 11
16.19065169809982
 21
339.2491533729808
 31
0.0
  0
SPLINE
  5
E29
100
AcDbEntity
  8
VHH-025
100
AcDbSpline
210
0.0
220
0.0
230
1.0
 70
     8
 71
     3
 72
    11
 73
     7
 74
     5
 42
0.0000001
 43
0.0000001
 44
0.0000000001
 40
0.0
 40
0.0
 40
0.0
 40
0.0
 40
2.439326604699221
 40
9.559659611393655
 40
15.47915361148254
 40
15.77071151036895
 40
15.77071151036895
 40
15.77071151036895
 40
15.77071151036895
 10
17.19652871551261
 20
341.9553123135138
 30
0.0
 10
17.29545793378621
 20
342.7625529932145
 30
0.0
 10
17.68315905199441
 20
345.9261089137472
 30
0.0
 10
17.84870208962854
 20
351.0905796447759
 30
0.0
 10
17.89141798658798
 20
355.5344828812895
 30
0.0
 10
17.82651520213619
 20
357.6038408261454
 30
0.0
 10
17.82346854920615
 20
357.700980193882
 30
0.0
 11
17.19652871551261
 21
341.9553123135138
 31
0.0
 11
17.47472945692243
 21
344.3787228507262
 31
0.0
 11
17.83242163971044
 21
351.4900657920134
 31
0.0
 11
17.83242163971044
 21
357.4095597921023
 31
0.0
 11
17.82346854920615
 21
357.700980193882
 31
0.0
  0
SPLINE
  5
E2A
100
AcDbEntity
  8
VHH-025
100
AcDbSpline
210
0.0
220
0.0
230
1.0
 70
     8
 71
     3
 72
    12
 73
     8
 74
     6
 42
0.0000001
 43
0.0000001
 44
0.0000000001
 40
0.0
 40
0.0
 40
0.0
 40
0.0
 40
0.4301022247161861
 40
0.8434719887056296
 40
1.254524939527577
 40
1.659116521511637
 40
1.863361491889384
 40
1.863361491889384
 40
1.863361491889384
 40
1.863361491889384
 10
56.64378050962842
 20
393.1033544413385
 30
0.0
 10
56.78630237836692
 20
393.1217674132377
 30
0.0
 10
57.06580152333936
 20
393.1578770288905
 30
0.0
 10
57.45824668875829
 20
393.3250705673636
 30
0.0
 10
57.75414393713674
 20
393.6260807858597
 30
0.0
 10
57.87828400993478
 20
393.9503294105003
 30
0.0
 10
57.91331759967745
 20
394.1501079148757
 30
0.0
 10
57.92507023586768
 20
394.217127141218
 30
0.0
 11
56.64378050962842
 21
393.1033544413385
 31
0.0
 11
57.06727916237105
 21
393.1784331655617
 31
0.0
 11
57.44403506400704
 21
393.348520062068
 31
0.0
 11
57.73103975097001
 21
393.6427866725435
 31
0.0
 11
57.88541505556532
 21
394.016768775783
 31
0.0
 11
57.92507023586768
 21
394.217127141218
 31
0.0
  0
SPLINE
  5
E2B
100
AcDbEntity
  8
VHH-025
100
AcDbSpline
210
0.0
220
0.0
230
1.0
 70
     8
 71
     3
 72
    12
 73
     8
 74
     6
 42
0.0000001
 43
0.0000001
 44
0.0000000001
 40
0.0
 40
0.0
 40
0.0
 40
0.0
 40
0.6333227639766334
 40
1.258591262609584
 40
1.575282577617696
 40
2.212493335719044
 40
2.538190609335325
 40
2.538190609335325
 40
2.538190609335325
 40
2.538190609335325
 10
42.63642729392086
 20
389.3419913231118
 30
0.0
 10
42.66227530032923
 20
389.1295174019107
 30
0.0
 10
42.71364259181456
 20
388.7072716909292
 30
0.0
 10
43.04327432203134
 20
388.2669763418803
 30
0.0
 10
43.46663412518704
 20
387.9539308137651
 30
0.0
 10
43.88452151199872
 20
387.805371027495
 30
0.0
 10
44.20608382750274
 20
387.8065737614106
 30
0.0
 10
44.31485015409634
 20
387.8069805782033
 30
0.0
 11
42.63642729392086
 21
389.3419913231118
 31
0.0
 11
42.76765081201301
 21
388.7224123437472
 31
0.0
 11
43.13226538727758
 21
388.2144586973509
 31
0.0
 11
43.38685538104619
 21
388.0261044458075
 31
0.0
 11
43.98936335480357
 21
387.8186877352973
 31
0.0
 11
44.31485015409634
 21
387.8069805782033
 31
0.0
  0
SPLINE
  5
E2C
100
AcDbEntity
  8
VHH-025
100
AcDbSpline
210
0.0
220
0.0
230
-1.0
 70
     8
 71
     3
 72
    14
 73
    10
 74
     8
 42
0.0000001
 43
0.0000001
 44
0.0000000001
 40
0.0
 40
0.0
 40
0.0
 40
0.0
 40
0.2461636398491298
 40
0.4473543715030857
 40
0.8348519280356871
 40
1.027990166881787
 40
1.250840234266887
 40
1.448371555079969
 40
1.702783789879809
 40
1.702783789879809
 40
1.702783789879809
 40
1.702783789879809
 10
43.96439260814076
 20
393.6545248284592
 30
0.0
 10
43.96421650214117
 20
393.5722304303869
 30
0.0
 10
43.96389646385761
 20
393.4226764233435
 30
0.0
 10
44.02529031169406
 20
393.1491511673833
 30
0.0
 10
44.12852057566283
 20
392.910398162015
 30
0.0
 10
44.26327279640328
 20
392.6727114014271
 30
0.0
 10
44.44296686085398
 20
392.563987389517
 30
0.0
 10
44.64874266241033
 20
392.469816359869
 30
0.0
 10
44.80070198889875
 20
392.4596876389554
 30
0.0
 10
44.88624433455334
 20
392.453985885957
 30
0.0
 11
43.96439260814076
 21
393.6545248284592
 31
0.0
 11
43.97392239204783
 21
393.4085457220244
 31
0.0
 11
44.01561188816595
 21
393.2117216980413
 31
0.0
 11
44.16340820797813
 21
392.8535170021359
 31
0.0
 11
44.26951503167219
 21
392.6921363302135
 31
0.0
 11
44.45180670242734
 21
392.5639493601002
 31
0.0
 11
44.63409837318067
 21
392.4878680254896
 31
0.0
 11
44.88624433455334
 21
392.453985885957
 31
0.0
  0
LINE
  5
E2D
100
AcDbEntity
  8
VHH-025
100
AcDbLine
 10
44.171455
 20
392.838215
 30
0.0
 11
45.88397
 21
389.617621
 31
0.0
  0
LINE
  5
E2E
100
AcDbEntity
  8
VHH-025
100
AcDbLine
 10
44.474314
 20
390.070754
 30
0.0
 11
44.481199
 21
392.255703
 31
0.0
  0
LINE
  5
E2F
100
AcDbEntity
  8
VHH-025
100
AcDbLine
 10
59.128681
 20
390.333586
 30
0.0
 11
45.0013
 21
389.569907
 31
0.0
  0
LINE
  5
E30
100
AcDbEntity
  8
VHH-025
100
AcDbLine
 10
57.984907
 20
392.692136
 30
0.0
 11
59.21569
 21
390.33829
 31
0.0
  0
LINE
  5
E31
100
AcDbEntity
  8
VHH-025
100
AcDbLine
 10
56.643781
 20
393.103354
 30
0.0
 11
44.886244
 21
392.453986
 31
0.0
  0
LINE
  5
E32
100
AcDbEntity
  8
VHH-025
100
AcDbLine
 10
7.390652
 20
421.7
 30
0.0
 11
17.255901
 21
421.7
 31
0.0
  0
SPLINE
  5
E33
100
AcDbEntity
  8
VHH-025
100
AcDbSpline
210
0.0
220
0.0
230
-1.0
 70
     8
 71
     3
 72
    12
 73
     8
 74
     6
 42
0.0000001
 43
0.0000001
 44
0.0000000001
 40
0.0
 40
0.0
 40
0.0
 40
0.0
 40
0.460609787038649
 40
0.8428341308476516
 40
1.231136252854545
 40
1.532631450480557
 40
1.823032378360353
 40
1.823032378360353
 40
1.823032378360353
 40
1.823032378360353
 10
45.01999602232717
 20
420.1202051532481
 30
0.0
 10
45.03042007936471
 20
420.274098437537
 30
0.0
 10
45.0494942529936
 20
420.555695824646
 30
0.0
 10
45.21384921392317
 20
420.9431231334703
 30
0.0
 10
45.48914788066015
 20
421.1909754753483
 30
0.0
 10
45.80163879084991
 20
421.3016695026363
 30
0.0
 10
45.99789055990656
 20
421.3243729721418
 30
0.0
 10
46.09417721118916
 20
421.3355119344132
 30
0.0
 11
45.01999602232717
 21
420.1202051532481
 31
0.0
 11
45.07917620309854
 21
420.5769973183732
 31
0.0
 11
45.23641698603205
 21
420.9253804195459
 31
0.0
 11
45.52499249252105
 21
421.1851932656673
 31
0.0
 11
45.80713539622775
 21
421.2914699615112
 31
0.0
 11
46.09417721118916
 21
421.3355119344132
 31
0.0
  0
SPLINE
  5
E34
100
AcDbEntity
  8
VHH-025
100
AcDbSpline
210
0.0
220
0.0
230
-1.0
 70
     8
 71
     3
 72
    11
 73
     7
 74
     5
 42
0.0000001
 43
0.0000001
 44
0.0000000001
 40
0.0
 40
0.0
 40
0.0
 40
0.0
 40
0.3788822097076336
 40
0.7856242620079092
 40
1.206550869508587
 40
1.477512281568232
 40
1.477512281568232
 40
1.477512281568232
 40
1.477512281568232
 10
58.1198460835476
 20
421.9537630751847
 30
0.0
 10
58.247978326639
 20
421.9545274824936
 30
0.0
 10
58.51366459096845
 20
421.9561125052595
 30
0.0
 10
58.87389914274088
 20
421.7049528597433
 30
0.0
 10
58.97556374946826
 20
421.3335306680003
 30
0.0
 10
58.97797520128984
 20
421.1036668463552
 30
0.0
 10
58.97891958878062
 20
421.0136461725851
 30
0.0
 11
58.1198460835476
 21
421.9537630751847
 31
0.0
 11
58.49700344472876
 21
421.9176513909287
 31
0.0
 11
58.82848208834002
 21
421.6819375688073
 31
0.0
 11
58.96663659196747
 21
421.2843290401897
 31
0.0
 11
58.97891958878062
 21
421.0136461725851
 31
0.0
  0
SPLINE
  5
E35
100
AcDbEntity
  8
VHH-025
100
AcDbSpline
210
0.0
220
0.0
230
-1.0
 70
     8
 71
     3
 72
    11
 73
     7
 74
     5
 42
0.0000001
 43
0.0000001
 44
0.0000000001
 40
0.0
 40
0.0
 40
0.0
 40
0.0
 40
0.7911843907099164
 40
1.600893155509014
 40
2.251444458122764
 40
2.582196256357362
 40
2.582196256357362
 40
2.582196256357362
 40
2.582196256357362
 10
42.60336968757292
 20
422.2385176264106
 30
0.0
 10
42.6468301666424
 20
422.5045943193703
 30
0.0
 10
42.73476868551919
 20
423.0429774846617
 30
0.0
 10
43.30547015071515
 20
423.5992969230038
 30
0.0
 10
43.85720355503742
 20
423.8387947754943
 30
0.0
 10
44.1768029518393
 20
423.9101023783369
 30
0.0
 10
44.28452509713316
 20
423.9341368666082
 30
0.0
 11
42.60336968757292
 21
422.2385176264106
 31
0.0
 11
42.81138765992909
 21
423.0018663431056
 31
0.0
 11
43.37031662248773
 21
423.5877218701816
 31
0.0
 11
43.96332429110225
 21
423.8552268276999
 31
0.0
 11
44.28452509713316
 21
423.9341368666082
 31
0.0
  0
ARC
  5
E36
100
AcDbEntity
  8
VHH-025
100
AcDbCircle
 10
45.073196
 20
421.44592
 30
0.0
 40
0.5
100
AcDbArc
 50
92.817949
 51
179.819431
  0
LINE
  5
E37
100
AcDbEntity
  8
VHH-025
100
AcDbLine
 10
45.048614
 20
421.945316
 30
0.0
 11
59.216064
 21
422.642668
 31
0.0
  0
LINE
  5
E38
100
AcDbEntity
  8
VHH-025
100
AcDbLine
 10
46.094177
 20
421.335512
 30
0.0
 11
58.119846
 21
421.953763
 31
0.0
  0
LINE
  5
E39
100
AcDbEntity
  8
VHH-025
100
AcDbLine
 10
44.530324
 20
407.843345
 30
0.0
 11
44.573198
 21
421.447496
 31
0.0
  0
LWPOLYLINE
  5
E86
100
AcDbEntity
  8
VHH-025
100
AcDbPolyline
 90
       14
 70
     0
 43
0.0
 10
109.390652
 20
266.914697
 42
-0.236789
 10
109.526105
 20
267.184681
 42
0.124736
 10
110.454984
 20
268.329037
 42
0.224952
 10
110.308675
 20
284.786213
 42
-0.113339
 10
107.303424
 20
297.873746
 10
107.303424
 20
301.74894
 42
-0.301029
 10
110.350827
 20
306.351914
 42
-0.203332
 10
134.430476
 20
306.351914
 42
-0.301029
 10
137.477879
 20
301.74894
 10
137.477879
 20
297.873746
 42
-0.113339
 10
134.472628
 20
284.786213
 42
0.224952
 10
134.326319
 20
268.329037
 42
0.124736
 10
135.255198
 20
267.184681
 42
-0.236789
 10
135.390652
 20
266.914697
 42
-0.293728
  0
LINE
  5
E8A
100
AcDbEntity
  8
VHH-025
100
AcDbLine
 10
222.701751
 20
357.708899
 30
0.0
 11
222.828867
 21
62.425449
 31
0.0
  0
LINE
  5
E8B
100
AcDbEntity
  8
VHH-025
100
AcDbLine
 10
237.390651
 20
421.7
 30
0.0
 11
237.390651
 21
57.5
 31
0.0
  0
LINE
  5
E8C
100
AcDbEntity
  8
VHH-025
100
AcDbLine
 10
228.588476
 20
86.71489
 30
0.0
 11
228.588476
 21
339.249153
 31
0.0
  0
SPLINE
  5
E9C
100
AcDbEntity
  8
VHH-025
100
AcDbSpline
210
0.0
220
0.0
230
1.0
 70
     8
 71
     3
 72
    14
 73
    10
 74
     8
 42
0.0000001
 43
0.0000001
 44
0.0000000001
 40
0.0
 40
0.0
 40
0.0
 40
0.0
 40
11.05092888180737
 40
19.11701555335862
 40
21.83833101109257
 40
23.82063570679619
 40
25.41815743345521
 40
26.54338131689955
 40
27.54198087681909
 40
27.54198087681909
 40
27.54198087681909
 40
27.54198087681909
 10
233.5608594391323
 20
60.01097835698146
 30
0.0
 10
233.3781292931158
 20
63.70068459104517
 30
0.0
 10
233.0620241873075
 20
70.08351197309817
 30
0.0
 10
231.9170664965167
 20
77.21914190561368
 30
0.0
 10
231.2805672039665
 20
81.50890745192844
 30
0.0
 10
230.0785586134916
 20
83.26955388922312
 30
0.0
 10
229.0344059449735
 20
84.46387087646387
 30
0.0
 10
228.6712949141691
 20
85.67785837911809
 30
0.0
 10
228.6149627587107
 20
86.38323114479254
 30
0.0
 10
228.5884759686596
 20
86.71489003837086
 30
0.0
 11
233.5608594391323
 21
60.01097835698146
 31
0.0
 11
232.7833744681975
 21
71.0345234433289
 31
0.0
 11
231.6524333472407
 21
79.02093229674392
 31
0.0
 11
231.0218681641381
 21
81.66818471583065
 31
0.0
 11
229.9709519301759
 21
83.34899017030876
 31
0.0
 11
229.046144872158
 21
84.65160583603211
 31
0.0
 11
228.7012971187396
 21
85.72268417809482
 31
0.0
 11
228.5884759686596
 21
86.71489003837086
 31
0.0
  0
SPLINE
  5
E9D
100
AcDbEntity
  8
VHH-025
100
AcDbSpline
210
0.0
220
0.0
230
-1.0
 70
     8
 71
     3
 72
    14
 73
    10
 74
     8
 42
0.0000001
 43
0.0000001
 44
0.0000000001
 40
0.0
 40
0.0
 40
0.0
 40
0.0
 40
6.706404132124426
 40
15.26849006360837
 40
19.65418868062625
 40
21.78101070170209
 40
23.77997609944397
 40
25.24609195193349
 40
26.0890823189511
 40
26.0890823189511
 40
26.0890823189511
 40
26.0890823189511
 10
226.6752677592084
 20
59.99972846093715
 30
0.0
 10
226.685389703401
 20
62.23526214110735
 30
0.0
 10
226.7084343635921
 20
67.32490826294463
 30
0.0
 10
226.7935279628286
 20
73.87443901661874
 30
0.0
 10
226.9704214447044
 20
78.89999970907156
 30
0.0
 10
227.2000346697607
 20
81.72474652643382
 30
0.0
 10
227.3601720493885
 20
83.59065053650786
 30
0.0
 10
227.7851947695717
 20
84.9678949434659
 30
0.0
 10
228.0285565512885
 20
85.69772094588818
 30
0.0
 10
228.1174011596285
 20
85.96416009210134
 30
0.0
 11
226.6752677592084
 21
59.99972846093715
 31
0.0
 11
226.7139410883119
 21
66.70602108480853
 31
0.0
 11
226.8535362788643
 21
75.26696896929479
 31
0.0
 11
227.0419456557483
 21
79.64861868897969
 31
0.0
 11
227.2053043550713
 21
81.76915773476229
 31
0.0
 11
227.4561770514628
 21
83.75231823042941
 31
0.0
 11
227.8529400147836
 21
85.16372704571223
 31
0.0
 11
228.1174011596285
 21
85.96416009210134
 31
0.0
  0
LINE
  5
E9E
100
AcDbEntity
  8
VHH-025
100
AcDbLine
 10
243.198173
 20
0.0
 30
0.0
 11
122.389564
 21
0.0
 31
0.0
  0
LINE
  5
E9F
100
AcDbEntity
  8
VHH-025
100
AcDbLine
 10
236.239742
 20
55.140004
 30
0.0
 11
122.389564
 21
55.140004
 31
0.0
  0
INSERT
  5
EA0
100
AcDbEntity
  8
VHH-050
100
AcDbBlockReference
  2
A$C605007EB
 10
109.863924
 20
7.429986
 30
0.0
  0
INSERT
  5
EA1
100
AcDbEntity
  8
VHH-050
100
AcDbBlockReference
  2
A$C7A7B4A19
 10
168.684613
 20
21.322331
 30
0.0
  0
SPLINE
  5
EA2
100
AcDbEntity
  8
VHH-025
100
AcDbSpline
210
0.0
220
0.0
230
1.0
 70
     8
 71
     3
 72
    10
 73
     6
 74
     4
 42
0.0000001
 43
0.0000001
 44
0.0000000001
 40
0.0
 40
0.0
 40
0.0
 40
0.0
 40
0.3816052292274963
 40
0.5746288017449359
 40
1.481778013365437
 40
1.481778013365437
 40
1.481778013365437
 40
1.481778013365437
 10
233.5608594391323
 20
60.01097835698146
 30
0.0
 10
233.5377523245729
 20
59.8720598840968
 30
0.0
 10
233.5029571683903
 20
59.6628736636261
 30
0.0
 10
233.0115720105943
 20
59.4800230103208
 30
0.0
 10
232.645749846564
 20
59.49106921559774
 30
0.0
 10
232.3441106018217
 20
59.50017738165389
 30
0.0
 11
233.5608594391323
 21
60.01097835698146
 31
0.0
 11
233.4228444425243
 21
59.6552053792484
 31
0.0
 11
233.2483590569227
 21
59.57266478463679
 31
0.0
 11
232.3441106018217
 21
59.50017738165389
 31
0.0
  0
ARC
  5
EA3
100
AcDbEntity
  8
VHH-025
100
AcDbCircle
 10
233.224837
 20
59.062386
 30
0.0
 40
0.641074
100
AcDbArc
 50
136.929081
 51
185.550704
  0
LINE
  5
EA4
100
AcDbEntity
  8
VHH-025
100
AcDbLine
 10
232.586769
 20
59.000377
 30
0.0
 11
232.586769
 21
57.5
 31
0.0
  0
LINE
  5
EA5
100
AcDbEntity
  8
VHH-025
100
AcDbLine
 10
237.389564
 20
0.0
 30
0.0
 11
236.940054
 21
56.508727
 31
0.0
  0
LINE
  5
EA6
100
AcDbEntity
  8
VHH-025
100
AcDbLine
 10
236.670485
 20
0.0
 30
0.0
 11
236.239742
 21
55.140004
 31
0.0
  0
LINE
  5
EA7
100
AcDbEntity
  8
VHH-025
100
AcDbLine
 10
244.779128
 20
1.0
 30
0.0
 11
243.056772
 21
39.559818
 31
0.0
  0
LINE
  5
EA8
100
AcDbEntity
  8
VHH-025
100
AcDbLine
 10
237.381609
 20
1.0
 30
0.0
 11
244.779128
 21
1.0
 31
0.0
  0
LINE
  5
EA9
100
AcDbEntity
  8
VHH-025
100
AcDbLine
 10
243.198173
 20
0.0
 30
0.0
 11
243.198173
 21
1.0
 31
0.0
  0
ARC
  5
EAA
100
AcDbEntity
  8
VHH-025
100
AcDbCircle
 10
242.0329
 20
39.487588
 30
0.0
 40
1.026416
100
AcDbArc
 50
4.035286
 51
99.47558
  0
LINE
  5
EAB
100
AcDbEntity
  8
VHH-025
100
AcDbLine
 10
241.712778
 20
40.5
 30
0.0
 11
239.388476
 21
40.5
 31
0.0
  0
ARC
  5
EAC
100
AcDbEntity
  8
VHH-025
100
AcDbCircle
 10
235.940092
 20
56.5
 30
0.0
 40
1.0
100
AcDbArc
 50
0.499999
 51
89.999996
  0
LWPOLYLINE
  5
EB0
100
AcDbEntity
  8
VHH-025
100
AcDbPolyline
 90
        9
 70
   128
 43
0.0
 10
131.260652
 20
258.800001
 42
0.0597
 10
130.695041
 20
263.520261
 42
0.073203
 10
129.128567
 20
267.389755
 42
0.106775
 10
126.177934
 20
270.598295
 42
0.154846
 10
122.390652
 20
271.800001
 42
0.154846
 10
118.603369
 20
270.598295
 42
0.106775
 10
115.652737
 20
267.389755
 42
0.073203
 10
114.086262
 20
263.520261
 42
0.0597
 10
113.520652
 20
258.800001
 42
0.0597
  0
LINE
  5
EB1
100
AcDbEntity
  8
VHH-025
100
AcDbLine
 10
115.390653
 20
202.500001
 30
0.0
 11
129.390653
 21
202.500001
 31
0.0
  0
LINE
  5
EB2
100
AcDbEntity
  8
VHH-025
100
AcDbLine
 10
138.263062
 20
222.500001
 30
0.0
 11
106.518243
 21
222.500001
 31
0.0
  0
LINE
  5
EB3
100
AcDbEntity
  8
VHH-025
100
AcDbLine
 10
114.390653
 20
208.000001
 30
0.0
 11
130.390653
 21
208.000001
 31
0.0
  0
LINE
  5
EB4
100
AcDbEntity
  8
VHH-025
100
AcDbLine
 10
114.390653
 20
206.000001
 30
0.0
 11
130.390653
 21
206.000001
 31
0.0
  0
LINE
  5
EB5
100
AcDbEntity
  8
VHH-025
100
AcDbLine
 10
106.390652
 20
248.500001
 30
0.0
 11
138.390652
 21
248.500001
 31
0.0
  0
LINE
  5
EB6
100
AcDbEntity
  8
VHH-025
100
AcDbLine
 10
107.474602
 20
258.800001
 30
0.0
 11
137.306701
 21
258.800001
 31
0.0
  0
LWPOLYLINE
  5
EB7
100
AcDbEntity
  8
VHH-025
100
AcDbPolyline
 90
        5
 70
   128
 43
0.0
 10
126.541368
 20
265.871069
 42
0.106775
 10
124.448273
 20
268.147117
 42
0.154846
 10
122.390652
 20
268.800001
 42
0.154846
 10
120.33303
 20
268.147117
 42
0.096835
 10
118.390652
 20
266.116629
 42
0.073203
  0
LINE
  5
EB8
100
AcDbEntity
  8
VHH-025
100
AcDbLine
 10
123.811056
 20
250.500001
 30
0.0
 11
125.776147
 21
250.500001
 31
0.0
  0
LINE
  5
EB9
100
AcDbEntity
  8
VHH-025
100
AcDbLine
 10
119.683025
 20
266.522744
 30
0.0
 11
125.098279
 21
266.522744
 31
0.0
  0
LINE
  5
EBA
100
AcDbEntity
  8
VHH-025
100
AcDbLine
 10
116.865296
 20
250.500001
 30
0.0
 11
115.055166
 21
250.500001
 31
0.0
  0
SPLINE
  5
EBB
100
AcDbEntity
  8
VHH-025
100
AcDbSpline
210
0.0
220
0.0
230
-1.0
 70
     8
 71
     3
 72
     8
 73
     4
 74
     0
 42
0.0000001
 43
0.0000001
 40
11.26475349674838
 40
11.26475349674838
 40
11.26475349674838
 40
11.26475349674838
 40
13.18171191061374
 40
13.18171191061374
 40
13.18171191061374
 40
13.18171191061374
 10
107.6046768062333
 20
258.7886356204017
 30
0.0
 10
108.197007365763
 20
259.0292112705683
 30
0.0
 10
108.7938295170533
 20
259.2609315877361
 30
0.0
 10
109.3906516683418
 20
259.492651904904
 30
0.0
  0
SPLINE
  5
EBC
100
AcDbEntity
  8
VHH-025
100
AcDbSpline
210
0.0
220
0.0
230
1.0
 70
     8
 71
     3
 72
     9
 73
     5
 74
     3
 42
0.0000001
 43
0.0000001
 44
0.0000000001
 40
0.0
 40
0.0
 40
0.0
 40
0.0
 40
2.733829430437908
 40
5.619066715712858
 40
5.619066715712858
 40
5.619066715712858
 40
5.619066715712858
 10
105.6482312683219
 20
227.2398441439745
 30
0.0
 10
104.7390300424934
 20
227.17661062363
 30
0.0
 10
102.8702732396523
 20
227.0466415167321
 30
0.0
 10
100.9975706408787
 20
226.9998314093607
 30
0.0
 10
100.035989005426
 20
226.9757956977473
 30
0.0
 11
105.6482312683219
 21
227.2398441439745
 31
0.0
 11
102.9196935861127
 21
227.06982805211
 31
0.0
 11
100.035989005426
 21
226.9757956977473
 31
0.0
  0
SPLINE
  5
EBD
100
AcDbEntity
  8
VHH-025
100
AcDbSpline
210
0.0
220
0.0
230
1.0
 70
     8
 71
     3
 72
    11
 73
     7
 74
     5
 42
0.0000001
 43
0.0000001
 44
0.0000000001
 40
0.0
 40
0.0
 40
0.0
 40
0.0
 40
3.507846858671287
 40
6.874945989830568
 40
13.5836564715535
 40
18.98257100025277
 40
18.98257100025277
 40
18.98257100025277
 40
18.98257100025277
 10
98.64064228232019
 20
226.9751413285666
 30
0.0
 10
99.39428877601892
 20
226.0774690696348
 30
0.0
 10
100.8713426920974
 20
224.3181424669156
 30
0.0
 10
104.3890755429217
 20
221.4463446372183
 30
0.0
 10
108.8152266513087
 20
218.6942194871209
 30
0.0
 10
112.6712236779125
 20
217.4654114702331
 30
0.0
 10
114.3906524140711
 20
216.9174733362351
 30
0.0
 11
98.64064228232019
 21
226.9751413285666
 31
0.0
 11
100.9805529309524
 21
224.3617512428145
 31
0.0
 11
103.5541491562562
 21
222.1905858810432
 31
0.0
 11
109.3104926319738
 21
218.7451096995637
 31
0.0
 11
114.3906524140711
 21
216.9174733362351
 31
0.0
  0
SPLINE
  5
EBE
100
AcDbEntity
  8
VHH-025
100
AcDbSpline
210
0.0
220
0.0
230
-1.0
 70
     8
 71
     3
 72
    12
 73
     8
 74
     0
 42
0.0000001
 43
0.0000001
 40
0.0
 40
0.0
 40
0.0
 40
0.0
 40
0.6095442177753267
 40
1.191522444246205
 40
3.446974159399096
 40
9.223824065212813
 40
10.45835832968933
 40
10.45835832968933
 40
10.45835832968933
 40
10.45835832968933
 10
98.64064228232019
 20
252.5713236474402
 30
0.0
 10
98.63798386990858
 20
252.7790558560418
 30
0.0
 10
98.63278726896897
 20
253.1851258042488
 30
0.0
 10
99.27643422854272
 20
254.1847379206456
 30
0.0
 10
101.6891748504658
 20
255.8073963830238
 30
0.0
 10
104.346636527016
 20
257.37639798919
 30
0.0
 10
106.4813600116867
 20
258.3189313683078
 30
0.0
 10
106.8598794135214
 20
258.4796709013389
 30
0.0
  0
LINE
  5
EBF
100
AcDbEntity
  8
VHH-025
100
AcDbLine
 10
107.240171
 20
250.500001
 30
0.0
 11
107.490918
 21
258.050001
 31
0.0
  0
LINE
  5
EC0
100
AcDbEntity
  8
VHH-025
100
AcDbLine
 10
115.055166
 20
250.500001
 30
0.0
 11
115.182181
 21
258.050001
 31
0.0
  0
LINE
  5
EC1
100
AcDbEntity
  8
VHH-025
100
AcDbLine
 10
111.655171
 20
250.500001
 30
0.0
 11
111.835653
 21
258.050001
 31
0.0
  0
LINE
  5
EC2
100
AcDbEntity
  8
VHH-025
100
AcDbLine
 10
109.00816
 20
250.500001
 30
0.0
 11
109.230768
 21
258.050001
 31
0.0
  0
LINE
  5
EC3
100
AcDbEntity
  8
VHH-025
100
AcDbLine
 10
106.390652
 20
248.500001
 30
0.0
 11
106.725059
 21
258.076176
 31
0.0
  0
LINE
  5
EC4
100
AcDbEntity
  8
VHH-025
100
AcDbLine
 10
107.976613
 20
250.500001
 30
0.0
 11
107.240171
 21
250.500001
 31
0.0
  0
LINE
  5
EC5
100
AcDbEntity
  8
VHH-025
100
AcDbLine
 10
113.196603
 20
250.500001
 30
0.0
 11
111.655171
 21
250.500001
 31
0.0
  0
LINE
  5
EC6
100
AcDbEntity
  8
VHH-025
100
AcDbLine
 10
110.184039
 20
250.500001
 30
0.0
 11
109.00816
 21
250.500001
 31
0.0
  0
LINE
  5
EC7
100
AcDbEntity
  8
VHH-025
100
AcDbLine
 10
106.390652
 20
248.500001
 30
0.0
 11
105.518852
 21
223.5349
 31
0.0
  0
ARC
  5
EC8
100
AcDbEntity
  8
VHH-025
100
AcDbCircle
 10
106.518243
 20
223.500001
 30
0.0
 40
1.0
100
AcDbArc
 50
178.000001
 51
270.000001
  0
LINE
  5
EC9
100
AcDbEntity
  8
VHH-025
100
AcDbLine
 10
114.390653
 20
206.000001
 30
0.0
 11
114.390653
 21
203.500001
 31
0.0
  0
ARC
  5
ECA
100
AcDbEntity
  8
VHH-025
100
AcDbCircle
 10
115.390653
 20
203.500001
 30
0.0
 40
1.0
100
AcDbArc
 50
180.000001
 51
270.000001
  0
ARC
  5
ECB
100
AcDbEntity
  8
VHH-025
100
AcDbCircle
 10
112.390652
 20
220.500001
 30
0.0
 40
2.0
100
AcDbArc
 50
0.000001
 51
90.000001
  0
ARC
  5
ECC
100
AcDbEntity
  8
VHH-025
100
AcDbCircle
 10
113.640653
 20
207.000001
 30
0.0
 40
1.25
100
AcDbArc
 50
306.869898
 51
53.130103
  0
LINE
  5
ECD
100
AcDbEntity
  8
VHH-025
100
AcDbLine
 10
114.390652
 20
220.500001
 30
0.0
 11
114.390653
 21
208.000001
 31
0.0
  0
LINE
  5
ECE
100
AcDbEntity
  8
VHH-025
100
AcDbLine
 10
98.640642
 20
252.571324
 30
0.0
 11
98.640642
 21
226.975141
 31
0.0
  0
LINE
  5
ECF
100
AcDbEntity
  8
VHH-025
100
AcDbLine
 10
99.30819
 20
252.643616
 30
0.0
 11
106.261616
 21
244.804898
 31
0.0
  0
ARC
  5
ED0
100
AcDbEntity
  8
VHH-025
100
AcDbCircle
 10
107.474602
 20
258.050001
 30
0.0
 40
0.75
100
AcDbArc
 50
90.0
 51
178.0
  0
LINE
  5
ED1
100
AcDbEntity
  8
VHH-025
100
AcDbLine
 10
109.390652
 20
266.914697
 30
0.0
 11
109.390652
 21
258.800001
 31
0.0
  0
LWPOLYLINE
  5
ED2
100
AcDbEntity
  8
VHH-025
100
AcDbPolyline
 90
        3
 70
   128
 43
0.0
 10
118.239935
 20
265.871069
 42
0.073203
 10
117.001332
 20
262.811481
 42
0.0597
 10
116.520652
 20
258.800001
 42
0.0597
  0
LWPOLYLINE
  5
ED3
100
AcDbEntity
  8
VHH-025
100
AcDbPolyline
 90
        2
 70
   128
 43
0.0
 10
118.390652
 20
266.116629
 42
0.009838
 10
118.239935
 20
265.871069
 42
0.073203
  0
LINE
  5
ED4
100
AcDbEntity
  8
VHH-025
100
AcDbLine
 10
119.005157
 20
250.500001
 30
0.0
 11
119.070724
 21
258.050001
 31
0.0
  0
LINE
  5
ED5
100
AcDbEntity
  8
VHH-025
100
AcDbLine
 10
120.970248
 20
250.500001
 30
0.0
 11
119.005157
 21
250.500001
 31
0.0
  0
LINE
  5
ED6
100
AcDbEntity
  8
VHH-025
100
AcDbLine
 10
118.889683
 20
265.745064
 30
0.0
 11
119.683025
 21
266.522744
 31
0.0
  0
LINE
  5
ED7
100
AcDbEntity
  8
VHH-025
100
AcDbLine
 10
118.889683
 20
258.722234
 30
0.0
 11
118.889683
 21
265.745064
 31
0.0
  0
LINE
  5
ED8
100
AcDbEntity
  8
VHH-025
100
AcDbLine
 10
118.390652
 20
266.116629
 30
0.0
 11
118.390652
 21
258.800001
 31
0.0
  0
SPLINE
  5
ED9
100
AcDbEntity
  8
VHH-025
100
AcDbSpline
210
0.0
220
0.0
230
-1.0
 70
     8
 71
     3
 72
     8
 73
     4
 74
     0
 42
0.0000001
 43
0.0000001
 40
11.26475349674838
 40
11.26475349674838
 40
11.26475349674838
 40
11.26475349674838
 40
13.18171191061374
 40
13.18171191061374
 40
13.18171191061374
 40
13.18171191061374
 10
137.1766265304486
 20
258.7886356204017
 30
0.0
 10
136.5842959709189
 20
259.0292112705683
 30
0.0
 10
135.9874738196303
 20
259.2609315877361
 30
0.0
 10
135.39065166834
 20
259.492651904904
 30
0.0
  0
LWPOLYLINE
  5
EDA
100
AcDbEntity
  8
VHH-025
100
AcDbPolyline
 90
        3
 70
   128
 43
0.0
 10
128.260652
 20
258.800001
 42
0.0597
 10
127.779972
 20
262.811481
 42
0.073203
 10
126.541368
 20
265.871069
 42
0.106775
  0
SPLINE
  5
EDB
100
AcDbEntity
  8
VHH-025
100
AcDbSpline
210
0.0
220
0.0
230
1.0
 70
     8
 71
     3
 72
    11
 73
     7
 74
     5
 42
0.0000001
 43
0.0000001
 44
0.0000000001
 40
0.0
 40
0.0
 40
0.0
 40
0.0
 40
3.507846858671287
 40
6.874945989830568
 40
13.58365647155506
 40
18.98257100025261
 40
18.98257100025261
 40
18.98257100025261
 40
18.98257100025261
 10
146.1406624281789
 20
226.9751413285666
 30
0.0
 10
145.3870159344802
 20
226.0774690696348
 30
0.0
 10
143.9099620184017
 20
224.3181424669156
 30
0.0
 10
140.3922291675771
 20
221.4463446372179
 30
0.0
 10
135.9660780591893
 20
218.6942194871217
 30
0.0
 10
132.1100810325859
 20
217.4654114702332
 30
0.0
 10
130.390652296428
 20
216.9174733362351
 30
0.0
 11
146.1406624281789
 21
226.9751413285666
 31
0.0
 11
143.8007517795467
 21
224.3617512428145
 31
0.0
 11
141.2271555542429
 21
222.1905858810432
 31
0.0
 11
135.4708120785235
 21
218.7451096995637
 31
0.0
 11
130.390652296428
 21
216.9174733362351
 31
0.0
  0
SPLINE
  5
EDC
100
AcDbEntity
  8
VHH-025
100
AcDbSpline
210
0.0
220
0.0
230
1.0
 70
     8
 71
     3
 72
     9
 73
     5
 74
     3
 42
0.0000001
 43
0.0000001
 44
0.0000000001
 40
0.0
 40
0.0
 40
0.0
 40
0.0
 40
2.733829430439723
 40
5.619066715714674
 40
5.619066715714674
 40
5.619066715714674
 40
5.619066715714674
 10
139.1330720683599
 20
227.2398441439745
 30
0.0
 10
140.042273294189
 20
227.17661062363
 30
0.0
 10
141.9110300970308
 20
227.0466415167321
 30
0.0
 10
143.783732695805
 20
226.9998314093607
 30
0.0
 10
144.7453143312577
 20
226.9757956977473
 30
0.0
 11
139.1330720683599
 21
227.2398441439745
 31
0.0
 11
141.861609750571
 21
227.06982805211
 31
0.0
 11
144.7453143312577
 21
226.9757956977473
 31
0.0
  0
SPLINE
  5
EDD
100
AcDbEntity
  8
VHH-025
100
AcDbSpline
210
0.0
220
0.0
230
-1.0
 70
     8
 71
     3
 72
    12
 73
     8
 74
     0
 42
0.0000001
 43
0.0000001
 40
0.0
 40
0.0
 40
0.0
 40
0.0
 40
0.6095442177753267
 40
1.191522444246205
 40
3.446974159399096
 40
9.223824065212813
 40
10.45835832968933
 40
10.45835832968933
 40
10.45835832968933
 40
10.45835832968933
 10
146.1406610543617
 20
252.5713236474402
 30
0.0
 10
146.1433194667752
 20
252.7790558560418
 30
0.0
 10
146.1485160677129
 20
253.1851258042488
 30
0.0
 10
145.504869108141
 20
254.1847379206456
 30
0.0
 10
143.0921284862179
 20
255.8073963830238
 30
0.0
 10
140.4346668096677
 20
257.37639798919
 30
0.0
 10
138.2999433249951
 20
258.3189313683078
 30
0.0
 10
137.9214239231623
 20
258.4796709013389
 30
0.0
  0
LINE
  5
EDE
100
AcDbEntity
  8
VHH-025
100
AcDbLine
 10
137.541133
 20
250.500001
 30
0.0
 11
137.290385
 21
258.050001
 31
0.0
  0
LINE
  5
EDF
100
AcDbEntity
  8
VHH-025
100
AcDbLine
 10
129.726137
 20
250.500001
 30
0.0
 11
129.599122
 21
258.050001
 31
0.0
  0
LINE
  5
EE0
100
AcDbEntity
  8
VHH-025
100
AcDbLine
 10
135.773144
 20
250.500001
 30
0.0
 11
135.550535
 21
258.050001
 31
0.0
  0
LINE
  5
EE1
100
AcDbEntity
  8
VHH-025
100
AcDbLine
 10
133.126132
 20
250.500001
 30
0.0
 11
132.94565
 21
258.050001
 31
0.0
  0
LINE
  5
EE2
100
AcDbEntity
  8
VHH-025
100
AcDbLine
 10
138.390652
 20
248.500001
 30
0.0
 11
138.056244
 21
258.076176
 31
0.0
  0
LINE
  5
EE3
100
AcDbEntity
  8
VHH-025
100
AcDbLine
 10
125.776147
 20
250.500001
 30
0.0
 11
125.710579
 21
258.050001
 31
0.0
  0
LINE
  5
EE4
100
AcDbEntity
  8
VHH-025
100
AcDbLine
 10
127.916007
 20
250.500001
 30
0.0
 11
129.726137
 21
250.500001
 31
0.0
  0
LINE
  5
EE5
100
AcDbEntity
  8
VHH-025
100
AcDbLine
 10
131.5847
 20
250.500001
 30
0.0
 11
133.126132
 21
250.500001
 31
0.0
  0
LINE
  5
EE6
100
AcDbEntity
  8
VHH-025
100
AcDbLine
 10
136.80469
 20
250.500001
 30
0.0
 11
137.541133
 21
250.500001
 31
0.0
  0
LINE
  5
EE7
100
AcDbEntity
  8
VHH-025
100
AcDbLine
 10
134.597264
 20
250.500001
 30
0.0
 11
135.773144
 21
250.500001
 31
0.0
  0
LINE
  5
EE8
100
AcDbEntity
  8
VHH-025
100
AcDbLine
 10
138.390652
 20
248.500001
 30
0.0
 11
139.262453
 21
223.534901
 31
0.0
  0
LINE
  5
EE9
100
AcDbEntity
  8
VHH-025
100
AcDbLine
 10
130.390653
 20
206.000001
 30
0.0
 11
130.390653
 21
203.500001
 31
0.0
  0
ARC
  5
EEA
100
AcDbEntity
  8
VHH-025
100
AcDbCircle
 10
132.390652
 20
220.500001
 30
0.0
 40
2.0
100
AcDbArc
 50
90.000001
 51
180.000001
  0
ARC
  5
EEB
100
AcDbEntity
  8
VHH-025
100
AcDbCircle
 10
131.140653
 20
207.000001
 30
0.0
 40
1.25
100
AcDbArc
 50
126.869898
 51
233.130103
  0
LINE
  5
EEC
100
AcDbEntity
  8
VHH-025
100
AcDbLine
 10
130.390652
 20
220.500001
 30
0.0
 11
130.390653
 21
208.000001
 31
0.0
  0
ARC
  5
EED
100
AcDbEntity
  8
VHH-025
100
AcDbCircle
 10
138.263062
 20
223.500001
 30
0.0
 40
1.0
100
AcDbArc
 50
270.000001
 51
2.000001
  0
LINE
  5
EEE
100
AcDbEntity
  8
VHH-025
100
AcDbLine
 10
146.140661
 20
252.571324
 30
0.0
 11
146.140661
 21
226.975141
 31
0.0
  0
LINE
  5
EEF
100
AcDbEntity
  8
VHH-025
100
AcDbLine
 10
145.473113
 20
252.643616
 30
0.0
 11
138.519687
 21
244.804898
 31
0.0
  0
ARC
  5
EF0
100
AcDbEntity
  8
VHH-025
100
AcDbCircle
 10
129.390653
 20
203.500001
 30
0.0
 40
1.0
100
AcDbArc
 50
270.000001
 51
0.000001
  0
LINE
  5
EF1
100
AcDbEntity
  8
VHH-025
100
AcDbLine
 10
125.89162
 20
265.745064
 30
0.0
 11
125.098279
 21
266.522744
 31
0.0
  0
LINE
  5
EF2
100
AcDbEntity
  8
VHH-025
100
AcDbLine
 10
125.89162
 20
258.722234
 30
0.0
 11
125.89162
 21
265.745064
 31
0.0
  0
LINE
  5
EF3
100
AcDbEntity
  8
VHH-025
100
AcDbLine
 10
126.390652
 20
266.116629
 30
0.0
 11
126.390652
 21
258.800001
 31
0.0
  0
ARC
  5
EF4
100
AcDbEntity
  8
VHH-025
100
AcDbCircle
 10
137.306701
 20
258.050001
 30
0.0
 40
0.75
100
AcDbArc
 50
2.0
 51
90.0
  0
LINE
  5
EF5
100
AcDbEntity
  8
VHH-025
100
AcDbLine
 10
135.390652
 20
266.914697
 30
0.0
 11
135.390652
 21
258.800001
 31
0.0
  0
LINE
  5
F53
100
AcDbEntity
  8
VHH-025
100
AcDbLine
 10
227.531943
 20
421.7
 30
0.0
 11
237.390651
 21
421.7
 31
0.0
  0
LWPOLYLINE
  5
F54
100
AcDbEntity
  8
VHH-025
100
AcDbPolyline
 90
        4
 70
     1
 43
0.0
 10
64.112031
 20
402.235148
 10
64.862309
 20
402.235148
 10
64.862309
 20
397.970476
 10
64.112031
 20
397.970476
  0
LINE
  5
F55
100
AcDbEntity
  8
VHH-025
100
AcDbLine
 10
82.392826
 20
446.919456
 30
0.0
 11
82.392826
 21
379.417767
 31
0.0
  0
LINE
  5
F56
100
AcDbEntity
  8
VHH-025
100
AcDbLine
 10
85.892826
 20
440.676283
 30
0.0
 11
85.892826
 21
394.596587
 31
0.0
  0
LINE
  5
F57
100
AcDbEntity
  8
VHH-025
100
AcDbLine
 10
162.395017
 20
446.919456
 30
0.0
 11
162.395017
 21
379.417767
 31
0.0
  0
LINE
  5
F58
100
AcDbEntity
  8
VHH-025
100
AcDbLine
 10
158.895017
 20
440.676283
 30
0.0
 11
158.895017
 21
394.596587
 31
0.0
  0
LINE
  5
F59
100
AcDbEntity
  8
VHH-025
100
AcDbLine
 10
68.305977
 20
423.44451
 30
0.0
 11
68.28193
 21
390.656147
 31
0.0
  0
LINE
  5
F5A
100
AcDbEntity
  8
VHH-025
100
AcDbLine
 10
67.607057
 20
423.405642
 30
0.0
 11
67.586061
 21
390.73208
 31
0.0
  0
LINE
  5
F5B
100
AcDbEntity
  8
VHH-025
100
AcDbLine
 10
61.685993
 20
424.046433
 30
0.0
 11
61.66373
 21
389.400051
 31
0.0
  0
LINE
  5
F5C
100
AcDbEntity
  8
VHH-025
100
AcDbLine
 10
59.740641
 20
422.141054
 30
0.0
 11
59.601687
 21
390.830639
 31
0.0
  0
LWPOLYLINE
  5
F5D
100
AcDbEntity
  8
VHH-025
100
AcDbPolyline
 90
        3
 70
     0
 43
0.0
 10
227.531943
 20
421.7
 10
225.295501
 20
421.7
 10
227.579073
 20
378.085357
  0
LINE
  5
F5E
100
AcDbEntity
  8
VHH-025
100
AcDbLine
 10
220.409975
 20
440.407869
 30
0.0
 11
222.689497
 21
359.2
 31
0.0
  0
SPLINE
  5
F5F
100
AcDbEntity
  8
VHH-025
100
AcDbSpline
210
0.0
220
0.0
230
1.0
 70
     8
 71
     3
 72
    13
 73
     9
 74
     7
 42
0.0000001
 43
0.0000001
 44
0.0000000001
 40
0.0
 40
0.0
 40
0.0
 40
0.0
 40
3.28447827110949
 40
5.848013776662059
 40
8.811210366641562
 40
13.31059109350662
 40
22.19952180646463
 40
44.15308546549832
 40
44.15308546549832
 40
44.15308546549832
 40
44.15308546549832
 10
162.3950169921645
 20
379.4177674662396
 30
0.0
 10
162.2468387613495
 20
378.3136587897734
 30
0.0
 10
161.9830074116858
 20
376.3477932190672
 30
0.0
 10
160.184868057965
 20
373.9197369067362
 30
0.0
 10
157.3203667871993
 20
371.9983223500508
 30
0.0
 10
151.7129436358855
 20
371.8006041290058
 30
0.0
 10
140.0490772125611
 20
371.7017952914086
 30
0.0
 10
129.7366889706956
 20
371.667275027495
 30
0.0
 10
122.3963724251552
 20
371.6427036422428
 30
0.0
 11
162.3950169921645
 21
379.4177674662396
 31
0.0
 11
161.6572508920889
 21
376.2172208418378
 31
0.0
 11
160.1693640624398
 21
374.1296607659633
 31
0.0
 11
157.6919282876533
 21
372.5039775210861
 31
0.0
 11
153.2377587864029
 21
371.8677378025713
 31
0.0
 11
144.3497087265605
 21
371.7426164474718
 31
0.0
 11
122.3963724251552
 21
371.6427036422428
 31
0.0
  0
SPLINE
  5
F60
100
AcDbEntity
  8
VHH-025
100
AcDbSpline
210
0.0
220
0.0
230
1.0
 70
     8
 71
     3
 72
    13
 73
     9
 74
     0
 42
0.0000001
 43
0.0000001
 40
84.6955679326532
 40
84.6955679326532
 40
84.6955679326532
 40
84.6955679326532
 40
85.81548028374967
 40
86.6565862794542
 40
87.78626872105837
 40
90.14984869879972
 40
105.9639654671869
 40
122.7164926965437
 40
122.7164926965437
 40
122.7164926965437
 40
122.7164926965437
 10
158.8950169921645
 20
394.5965874588527
 30
0.0
 10
158.8538805264197
 20
394.2189825823025
 30
0.0
 10
158.7768211140501
 20
393.5572200834913
 30
0.0
 10
158.173406393229
 20
392.693907262128
 30
0.0
 10
156.9926002923912
 20
391.776844157529
 30
0.0
 10
150.2560248967656
 20
391.9075542287337
 30
0.0
 10
138.92158307946
 20
392.066341626607
 30
0.0
 10
128.0079676838104
 20
392.2371169104126
 30
0.0
 10
122.3939216341459
 20
392.3249650040706
 30
0.0
  0
LINE
  5
F61
100
AcDbEntity
  8
VHH-025
100
AcDbLine
 10
126.258133
 20
386.955023
 30
0.0
 11
124.132885
 21
382.757122
 31
0.0
  0
LINE
  5
F62
100
AcDbEntity
  8
VHH-025
100
AcDbLine
 10
122.545767
 20
377.206622
 30
0.0
 11
125.383557
 21
377.206622
 31
0.0
  0
LINE
  5
F63
100
AcDbEntity
  8
VHH-025
100
AcDbLine
 10
122.079391
 20
376.405033
 30
0.0
 11
124.52179
 21
380.602934
 31
0.0
  0
SPLINE
  5
F64
100
AcDbEntity
  8
VHH-025
100
AcDbSpline
210
0.0
220
0.0
230
1.0
 70
     8
 71
     3
 72
    13
 73
     9
 74
     7
 42
0.0000001
 43
0.0000001
 44
0.0000000001
 40
0.0
 40
0.0
 40
0.0
 40
0.0
 40
3.284478271109898
 40
5.848013776661412
 40
8.811210366642434
 40
13.31059109350569
 40
22.1995218064637
 40
44.15308546549739
 40
44.15308546549739
 40
44.15308546549739
 40
44.15308546549739
 10
82.39282627612556
 20
379.4177674662396
 30
0.0
 10
82.54100450694153
 20
378.3136587897735
 30
0.0
 10
82.80483585660677
 20
376.3477932190681
 30
0.0
 10
84.60297521032483
 20
373.9197369067351
 30
0.0
 10
87.46747648109211
 20
371.9983223500518
 30
0.0
 10
93.07489963240465
 20
371.8006041290052
 30
0.0
 10
104.7387660557293
 20
371.7017952914092
 30
0.0
 10
115.0511542975946
 20
371.6672750274953
 30
0.0
 10
122.3914708431348
 20
371.6427036422428
 30
0.0
 11
82.39282627612556
 21
379.4177674662396
 31
0.0
 11
83.13059237620292
 21
376.2172208418378
 31
0.0
 11
84.61847920585023
 21
374.1296607659633
 31
0.0
 11
87.09591498063856
 21
372.5039775210861
 31
0.0
 11
91.55008448188709
 21
371.8677378025713
 31
0.0
 11
100.4381345417296
 21
371.7426164474718
 31
0.0
 11
122.3914708431348
 21
371.6427036422428
 31
0.0
  0
SPLINE
  5
F65
100
AcDbEntity
  8
VHH-025
100
AcDbSpline
210
0.0
220
0.0
230
1.0
 70
     8
 71
     3
 72
    13
 73
     9
 74
     0
 42
0.0000001
 43
0.0000001
 40
84.6955679326532
 40
84.6955679326532
 40
84.6955679326532
 40
84.6955679326532
 40
85.81548028374967
 40
86.6565862794542
 40
87.78626872105837
 40
90.14984869879972
 40
105.9639654671869
 40
122.7164926965437
 40
122.7164926965437
 40
122.7164926965437
 40
122.7164926965437
 10
85.89282627612556
 20
394.5965874588527
 30
0.0
 10
85.93396274187034
 20
394.2189825823025
 30
0.0
 10
86.01102215423997
 20
393.5572200834913
 30
0.0
 10
86.61443687506107
 20
392.693907262128
 30
0.0
 10
87.7952429759007
 20
391.776844157529
 30
0.0
 10
94.53181837152442
 20
391.9075542287337
 30
0.0
 10
105.8662601888299
 20
392.066341626607
 30
0.0
 10
116.7798755844814
 20
392.2371169104126
 30
0.0
 10
122.3939216341459
 20
392.3249650040706
 30
0.0
  0
SPLINE
  5
F66
100
AcDbEntity
  8
VHH-025
100
AcDbSpline
210
0.0
220
0.0
230
1.0
 70
     8
 71
     3
 72
    12
 73
     8
 74
     0
 42
0.0000001
 43
0.0000001
 40
1.820596868471746
 40
1.820596868471746
 40
1.820596868471746
 40
1.820596868471746
 40
4.503295473557569
 40
6.216955522489968
 40
7.774552440697402
 40
9.232972112989187
 40
10.8164521343443
 40
10.8164521343443
 40
10.8164521343443
 40
10.8164521343443
 10
114.7858473207306
 20
384.6333369542226
 30
0.0
 10
115.2486677867382
 20
384.6479974493213
 30
0.0
 10
115.96065291595
 20
384.7817068106933
 30
0.0
 10
116.66974432192
 20
385.5649230906028
 30
0.0
 10
116.7231778522382
 20
386.4671833980128
 30
0.0
 10
116.001338911361
 20
386.9518270163971
 30
0.0
 10
115.4920808117203
 20
386.9539290813454
 30
0.0
 10
115.2269833043374
 20
386.9550233244781
 30
0.0
  0
SPLINE
  5
F67
100
AcDbEntity
  8
VHH-025
100
AcDbSpline
210
0.0
220
0.0
230
1.0
 70
    11
 71
     3
 72
    15
 73
    11
 74
     9
 42
0.0000001
 43
0.0000001
 44
0.0000000001
 40
0.0
 40
0.0
 40
0.0
 40
0.0
 40
0.514764739407837
 40
2.457789820816498
 40
3.944434646997826
 40
5.591791425460856
 40
7.10451629126457
 40
9.337163693808374
 40
10.73578930127907
 40
12.204454534416
 40
12.204454534416
 40
12.204454534416
 40
12.204454534416
 10
111.9457297939225
 20
379.0242162485219
 30
0.0
 10
112.0100306853488
 20
379.1825929530056
 30
0.0
 10
112.3170409840707
 20
379.9387765497733
 30
0.0
 10
113.5702688699419
 20
380.9030339837338
 30
0.0
 10
115.4083780031758
 20
380.1774958629275
 30
0.0
 10
115.7414268179021
 20
378.4474845534895
 30
0.0
 10
114.9801128044049
 20
376.7484929961629
 30
0.0
 10
112.8912166245043
 20
376.0077180773005
 30
0.0
 10
111.6031665736437
 20
377.5563404946068
 30
0.0
 10
111.8296975548457
 20
378.5270206935683
 30
0.0
 10
111.9457297939225
 20
379.0242162485219
 30
0.0
 11
111.9457297939225
 21
379.0242162485219
 31
0.0
 11
112.1594196912847
 21
379.4925317027864
 31
0.0
 11
113.7640615293639
 21
380.5881917953647
 31
0.0
 11
115.1454224446133
 21
380.0386875997182
 31
0.0
 11
115.5682888404426
 21
378.4465292009317
 31
0.0
 11
114.9198933223906
 21
377.0798105862231
 31
0.0
 11
112.7632764036698
 21
376.5021273772126
 31
0.0
 11
111.8470611571192
 21
377.5588691677467
 31
0.0
 11
111.9457297939225
 21
379.0242162485219
 31
0.0
  0
SPLINE
  5
F68
100
AcDbEntity
  8
VHH-025
100
AcDbSpline
210
0.0
220
0.0
230
-1.0
 70
     8
 71
     3
 72
    12
 73
     8
 74
     6
 42
0.0000001
 43
0.0000001
 44
0.0000000001
 40
0.0
 40
0.0
 40
0.0
 40
0.0
 40
1.411106911324726
 40
2.125038086020586
 40
2.805834388316208
 40
3.535044224462101
 40
4.326784235140562
 40
4.326784235140562
 40
4.326784235140562
 40
4.326784235140562
 10
108.1663797981855
 20
378.7082166641548
 30
0.0
 10
108.6425691374111
 20
378.7172704845922
 30
0.0
 10
109.3596802746964
 20
378.7309049676343
 30
0.0
 10
110.2053220220623
 20
379.3087114544604
 30
0.0
 10
110.2059199337356
 20
380.147077630264
 30
0.0
 10
109.5151090892645
 20
380.5965319568327
 30
0.0
 10
109.0058122028642
 20
380.6007422726422
 30
0.0
 10
108.7406945047896
 20
380.6029339790229
 30
0.0
 11
108.1663797981855
 21
378.7082166641548
 31
0.0
 11
109.561148133298
 21
378.9223287996255
 31
0.0
 11
110.1052706450445
 21
379.3845283392329
 31
0.0
 11
110.1026789588831
 21
380.0653197084366
 31
0.0
 11
109.5273519151796
 21
380.513366333148
 31
0.0
 11
108.7406945047896
 21
380.6029339790229
 31
0.0
  0
SPLINE
  5
F69
100
AcDbEntity
  8
VHH-025
100
AcDbSpline
210
0.0
220
0.0
230
1.0
 70
     8
 71
     3
 72
    12
 73
     8
 74
     6
 42
0.0000001
 43
0.0000001
 44
0.0000000001
 40
0.0
 40
0.0
 40
0.0
 40
0.0
 40
1.006217164968555
 40
1.679832645748139
 40
2.564456909786993
 40
3.472698377671032
 40
4.209033191014381
 40
4.209033191014381
 40
4.209033191014381
 40
4.209033191014381
 10
108.582950486716
 20
378.7082166641548
 30
0.0
 10
108.9358022314371
 20
378.6994300335577
 30
0.0
 10
109.5248717688367
 20
378.6847611634202
 30
0.0
 10
110.1183911618189
 20
377.9352203537969
 30
0.0
 10
109.9172286863262
 20
377.0334711668567
 30
0.0
 10
109.2097815641484
 20
376.4616863917041
 30
0.0
 10
108.654625939667
 20
376.4225537599321
 30
0.0
 10
108.4060631835363
 20
376.4050327002887
 30
0.0
 11
108.582950486716
 21
378.7082166641548
 31
0.0
 11
109.5696425214537
 21
378.5109558934409
 31
0.0
 11
109.9784101596251
 21
377.9755431237672
 31
0.0
 11
109.8326638202452
 21
377.1030076843244
 31
0.0
 11
109.1326773679647
 21
376.524283630385
 31
0.0
 11
108.4060631835363
 21
376.4050327002887
 31
0.0
  0
SPLINE
  5
F6A
100
AcDbEntity
  8
VHH-025
100
AcDbSpline
210
0.0
220
0.0
230
1.0
 70
     8
 71
     3
 72
    12
 73
     8
 74
     6
 42
0.0000001
 43
0.0000001
 44
0.0000000001
 40
0.0
 40
0.0
 40
0.0
 40
0.0
 40
1.006217164968555
 40
1.679832645748139
 40
2.564456909786993
 40
3.472698377671032
 40
4.209033191014381
 40
4.209033191014381
 40
4.209033191014381
 40
4.209033191014381
 10
109.9018746029614
 20
385.06030600961
 30
0.0
 10
110.2547263476825
 20
385.0515193790129
 30
0.0
 10
110.8437958850821
 20
385.0368505088754
 30
0.0
 10
111.4373152780643
 20
384.2873096992521
 30
0.0
 10
111.2361528025716
 20
383.3855605123119
 30
0.0
 10
110.5287056803938
 20
382.8137757371592
 30
0.0
 10
109.9735500559124
 20
382.7746431053872
 30
0.0
 10
109.7249872997817
 20
382.7571220457439
 30
0.0
 11
109.9018746029614
 21
385.06030600961
 31
0.0
 11
110.8885666376991
 21
384.8630452388961
 31
0.0
 11
111.2973342758705
 21
384.3276324692224
 31
0.0
 11
111.1515879364906
 21
383.4550970297796
 31
0.0
 11
110.4516014842101
 21
382.8763729758402
 31
0.0
 11
109.7249872997817
 21
382.7571220457439
 31
0.0
  0
SPLINE
  5
F6B
100
AcDbEntity
  8
VHH-025
100
AcDbSpline
210
0.0
220
0.0
230
-1.0
 70
     8
 71
     3
 72
    12
 73
     8
 74
     6
 42
0.0000001
 43
0.0000001
 44
0.0000000001
 40
0.0
 40
0.0
 40
0.0
 40
0.0
 40
1.411106911324726
 40
2.125038086020586
 40
2.805834388316208
 40
3.535044224462101
 40
4.326784235140562
 40
4.326784235140562
 40
4.326784235140562
 40
4.326784235140562
 10
109.4853039144309
 20
385.06030600961
 30
0.0
 10
109.9614932536564
 20
385.0693598300473
 30
0.0
 10
110.6786043909418
 20
385.0829943130895
 30
0.0
 10
111.5242461383077
 20
385.6608007999156
 30
0.0
 10
111.524844049981
 20
386.4991669757192
 30
0.0
 10
110.8340332055099
 20
386.9486213022879
 30
0.0
 10
110.3247363191096
 20
386.9528316180973
 30
0.0
 10
110.059618621035
 20
386.9550233244781
 30
0.0
 11
109.4853039144309
 21
385.06030600961
 31
0.0
 11
110.8800722495434
 21
385.2744181450807
 31
0.0
 11
111.4241947612899
 21
385.736617684688
 31
0.0
 11
111.4216030751285
 21
386.4174090538917
 31
0.0
 11
110.846276031425
 21
386.8654556786032
 31
0.0
 11
110.059618621035
 21
386.9550233244781
 31
0.0
  0
SPLINE
  5
F6C
100
AcDbEntity
  8
VHH-025
100
AcDbSpline
210
0.0
220
0.0
230
1.0
 70
     8
 71
     3
 72
    12
 73
     8
 74
     0
 42
0.0000001
 43
0.0000001
 40
0.3004138362153372
 40
0.3004138362153372
 40
0.3004138362153372
 40
0.3004138362153372
 40
0.6531836346659445
 40
2.201425060069765
 40
3.775834883110177
 40
5.170639203720888
 40
5.549375987942882
 40
5.549375987942882
 40
5.549375987942882
 40
5.549375987942882
 10
116.0041039518964
 20
382.7571220457448
 30
0.0
 10
115.9941896631116
 20
382.8152425106727
 30
0.0
 10
115.9469790160146
 20
383.1276352444974
 30
0.0
 10
115.9938109858958
 20
383.6814488339268
 30
0.0
 10
115.8518806833508
 20
384.5627740513155
 30
0.0
 10
115.2157443803625
 20
384.6342724435162
 30
0.0
 10
114.9073214311829
 20
384.6320828407924
 30
0.0
 10
114.7858473207306
 20
384.6333369542226
 30
0.0
  0
LINE
  5
F6D
100
AcDbEntity
  8
VHH-025
100
AcDbLine
 10
113.750965
 20
386.955023
 30
0.0
 11
115.226983
 21
386.955023
 31
0.0
  0
LINE
  5
F6E
100
AcDbEntity
  8
VHH-025
100
AcDbLine
 10
113.268899
 20
384.633337
 30
0.0
 11
114.785847
 21
384.633337
 31
0.0
  0
LINE
  5
F6F
100
AcDbEntity
  8
VHH-025
100
AcDbLine
 10
108.64281
 20
386.955023
 30
0.0
 11
110.059619
 21
386.955023
 31
0.0
  0
LINE
  5
F70
100
AcDbEntity
  8
VHH-025
100
AcDbLine
 10
108.249399
 20
385.060306
 30
0.0
 11
109.901875
 21
385.060306
 31
0.0
  0
LINE
  5
F71
100
AcDbEntity
  8
VHH-025
100
AcDbLine
 10
107.771174
 20
382.757122
 30
0.0
 11
109.724987
 21
382.757122
 31
0.0
  0
LINE
  5
F72
100
AcDbEntity
  8
VHH-025
100
AcDbLine
 10
108.64281
 20
386.955023
 30
0.0
 11
107.771174
 21
382.757122
 31
0.0
  0
LINE
  5
F73
100
AcDbEntity
  8
VHH-025
100
AcDbLine
 10
112.879328
 20
382.757122
 30
0.0
 11
113.750965
 21
386.955023
 31
0.0
  0
LINE
  5
F74
100
AcDbEntity
  8
VHH-025
100
AcDbLine
 10
107.323886
 20
380.602934
 30
0.0
 11
106.45225
 21
376.405033
 31
0.0
  0
LINE
  5
F75
100
AcDbEntity
  8
VHH-025
100
AcDbLine
 10
107.323886
 20
380.602934
 30
0.0
 11
108.740695
 21
380.602934
 31
0.0
  0
LINE
  5
F76
100
AcDbEntity
  8
VHH-025
100
AcDbLine
 10
106.45225
 20
376.405033
 30
0.0
 11
108.406063
 21
376.405033
 31
0.0
  0
LINE
  5
F77
100
AcDbEntity
  8
VHH-025
100
AcDbLine
 10
106.930474
 20
378.708217
 30
0.0
 11
108.58295
 21
378.708217
 31
0.0
  0
LINE
  5
F78
100
AcDbEntity
  8
VHH-025
100
AcDbLine
 10
103.461881
 20
387.455023
 30
0.0
 11
101.063685
 21
375.905033
 31
0.0
  0
LINE
  5
F79
100
AcDbEntity
  8
VHH-025
100
AcDbLine
 10
99.139596
 20
387.455023
 30
0.0
 11
96.7414
 21
375.905033
 31
0.0
  0
LINE
  5
F7A
100
AcDbEntity
  8
VHH-025
100
AcDbLine
 10
101.104271
 20
387.455023
 30
0.0
 11
98.706075
 21
375.905033
 31
0.0
  0
LINE
  5
F7B
100
AcDbEntity
  8
VHH-025
100
AcDbLine
 10
106.212425
 20
387.455023
 30
0.0
 11
103.814229
 21
375.905033
 31
0.0
  0
LINE
  5
F7C
100
AcDbEntity
  8
VHH-025
100
AcDbLine
 10
120.658893
 20
386.955023
 30
0.0
 11
120.964143
 21
386.955023
 31
0.0
  0
LINE
  5
F7D
100
AcDbEntity
  8
VHH-025
100
AcDbLine
 10
120.964143
 20
386.955023
 30
0.0
 11
121.652007
 21
382.757122
 31
0.0
  0
LINE
  5
F7E
100
AcDbEntity
  8
VHH-025
100
AcDbLine
 10
118.216495
 20
382.757122
 30
0.0
 11
120.658893
 21
386.955023
 31
0.0
  0
LINE
  5
F7F
100
AcDbEntity
  8
VHH-025
100
AcDbLine
 10
118.68287
 20
383.558711
 30
0.0
 11
121.52066
 21
383.558711
 31
0.0
  0
LINE
  5
F80
100
AcDbEntity
  8
VHH-025
100
AcDbLine
 10
123.248678
 20
386.955023
 30
0.0
 11
123.615086
 21
382.757122
 31
0.0
  0
LINE
  5
F81
100
AcDbEntity
  8
VHH-025
100
AcDbLine
 10
123.615086
 20
382.757122
 30
0.0
 11
124.132885
 21
382.757122
 31
0.0
  0
LINE
  5
F82
100
AcDbEntity
  8
VHH-025
100
AcDbLine
 10
117.847124
 20
380.602934
 30
0.0
 11
116.975487
 21
376.405033
 31
0.0
  0
LINE
  5
F83
100
AcDbEntity
  8
VHH-025
100
AcDbLine
 10
118.111548
 20
380.602934
 30
0.0
 11
119.832479
 21
376.405033
 31
0.0
  0
LINE
  5
F84
100
AcDbEntity
  8
VHH-025
100
AcDbLine
 10
121.03035
 20
380.602934
 30
0.0
 11
120.158713
 21
376.405033
 31
0.0
  0
LINE
  5
F85
100
AcDbEntity
  8
VHH-025
100
AcDbLine
 10
117.847124
 20
380.602934
 30
0.0
 11
118.111548
 21
380.602934
 31
0.0
  0
LINE
  5
F86
100
AcDbEntity
  8
VHH-025
100
AcDbLine
 10
119.832479
 20
376.405033
 30
0.0
 11
120.158713
 21
376.405033
 31
0.0
  0
SPLINE
  5
F87
100
AcDbEntity
  8
VHH-025
100
AcDbSpline
210
0.0
220
0.0
230
1.0
 70
     8
 71
     3
 72
    11
 73
     7
 74
     5
 42
0.0000001
 43
0.0000001
 44
0.0000000001
 40
0.0
 40
0.0
 40
0.0
 40
0.0
 40
0.6629926957091156
 40
1.324539577353706
 40
2.135160944774346
 40
2.616402084267626
 40
2.616402084267626
 40
2.616402084267626
 40
2.616402084267626
 10
66.6046406874957
 20
388.9532061030795
 30
0.0
 10
66.8256130694483
 20
388.9875970665293
 30
0.0
 10
67.26707595025015
 20
389.0563039957117
 30
0.0
 10
67.86535807468403
 20
389.4821643961863
 30
0.0
 10
68.21746362632376
 20
390.0653584337151
 30
0.0
 10
68.26443335297068
 20
390.4958003102683
 30
0.0
 10
68.28193038895733
 20
390.6561473580768
 30
0.0
 11
66.6046406874957
 21
388.9532061030795
 31
0.0
 11
67.24993926515708
 21
389.1053542553254
 31
0.0
 11
67.79387283458527
 21
389.4818918346754
 31
0.0
 11
68.20364337254068
 21
390.1813166751999
 31
0.0
 11
68.28193038895733
 21
390.6561473580768
 31
0.0
  0
SPLINE
  5
F88
100
AcDbEntity
  8
VHH-025
100
AcDbSpline
210
0.0
220
0.0
230
1.0
 70
     8
 71
     3
 72
    20
 73
    16
 74
     0
 42
0.0000001
 43
0.0000001
 40
0.0
 40
0.0
 40
0.0
 40
0.0
 40
0.3918367249981683
 40
0.3918367249981683
 40
0.6525501684806338
 40
0.6525501684806338
 40
1.182440120300543
 40
1.182440120300543
 40
1.712330072120452
 40
1.712330072120452
 40
2.006270928035041
 40
2.006270928035041
 40
2.315289501487082
 40
2.315289501487082
 40
2.616402084268149
 40
2.616402084268149
 40
2.616402084268149
 40
2.616402084268149
 10
66.49699235581465
 20
389.6448793183244
 30
0.0
 10
66.62758971385483
 20
389.6652047948719
 30
0.0
 10
66.7397717525273
 20
389.6834693973924
 30
0.0
 10
66.88938521679301
 20
389.7193358176973
 30
0.0
 10
66.93909146236364
 20
389.7348291204516
 30
0.0
 10
67.0619079192711
 20
389.784120629657
 30
0.0
 10
67.14651172047888
 20
389.8366299244717
 30
0.0
 10
67.30725242703738
 20
389.9782206218087
 30
0.0
 10
67.38053986794511
 20
390.0656042831988
 30
0.0
 10
67.46496316270167
 20
390.2052175410244
 30
0.0
 10
67.48962535382634
 20
390.2559666098341
 30
0.0
 10
67.52811736114018
 20
390.35810880202
 30
0.0
 10
67.54082857861613
 20
390.4062883098095
 30
0.0
 10
67.56528925811654
 20
390.5462616220838
 30
0.0
 10
67.5751131366942
 20
390.6317513268868
 30
0.0
 10
67.58606103217608
 20
390.7320804752998
 30
0.0
  0
LINE
  5
F89
100
AcDbEntity
  8
VHH-025
100
AcDbLine
 10
66.568692
 20
389.652282
 30
0.0
 11
61.66373
 21
389.400051
 31
0.0
  0
SPLINE
  5
F8A
100
AcDbEntity
  8
VHH-025
100
AcDbSpline
210
0.0
220
0.0
230
1.0
 70
     8
 71
     3
 72
    12
 73
     8
 74
     0
 42
0.0000001
 43
0.0000001
 40
1.820596868471746
 40
1.820596868471746
 40
1.820596868471746
 40
1.820596868471746
 40
4.503295473557569
 40
6.216955522489968
 40
7.774552440697402
 40
9.232972112989187
 40
10.8164521343443
 40
10.8164521343443
 40
10.8164521343443
 40
10.8164521343443
 10
140.8552435715864
 20
384.6333369542226
 30
0.0
 10
141.318064037594
 20
384.6479974493213
 30
0.0
 10
142.0300491668058
 20
384.7817068106933
 30
0.0
 10
142.7391405727757
 20
385.5649230906028
 30
0.0
 10
142.792574103094
 20
386.4671833980128
 30
0.0
 10
142.0707351622167
 20
386.9518270163971
 30
0.0
 10
141.5614770625761
 20
386.9539290813454
 30
0.0
 10
141.2963795551932
 20
386.9550233244781
 30
0.0
  0
SPLINE
  5
F8B
100
AcDbEntity
  8
VHH-025
100
AcDbSpline
210
0.0
220
0.0
230
1.0
 70
     8
 71
     3
 72
    12
 73
     8
 74
     0
 42
0.0000001
 43
0.0000001
 40
0.3004138362153372
 40
0.3004138362153372
 40
0.3004138362153372
 40
0.3004138362153372
 40
0.6531836346659445
 40
2.201425060069765
 40
3.775834883110177
 40
5.170639203720888
 40
5.549375987942882
 40
5.549375987942882
 40
5.549375987942882
 40
5.549375987942882
 10
142.0735002027522
 20
382.7571220457448
 30
0.0
 10
142.0635859139674
 20
382.8152425106727
 30
0.0
 10
142.0163752668704
 20
383.1276352444974
 30
0.0
 10
142.0632072367516
 20
383.6814488339268
 30
0.0
 10
141.9212769342066
 20
384.5627740513155
 30
0.0
 10
141.2851406312183
 20
384.6342724435162
 30
0.0
 10
140.9767176820387
 20
384.6320828407924
 30
0.0
 10
140.8552435715864
 20
384.6333369542226
 30
0.0
  0
SPLINE
  5
F8C
100
AcDbEntity
  8
VHH-025
100
AcDbSpline
210
0.0
220
0.0
230
1.0
 70
    11
 71
     3
 72
    15
 73
    11
 74
     9
 42
0.0000001
 43
0.0000001
 44
0.0000000001
 40
0.0
 40
0.0
 40
0.0
 40
0.0
 40
0.514764739407837
 40
2.457789820814996
 40
3.944434646996323
 40
5.591791425459354
 40
7.104516291263069
 40
9.337163693806871
 40
10.73578930127757
 40
12.20445453441462
 40
12.20445453441462
 40
12.20445453441462
 40
12.20445453441462
 10
133.9563271827846
 20
385.3701369677573
 30
0.0
 10
134.020628074211
 20
385.5285136722411
 30
0.0
 10
134.3276383729326
 20
386.2846972690082
 30
0.0
 10
135.5808662588026
 20
387.2489547029694
 30
0.0
 10
137.4189753920362
 20
386.523416582163
 30
0.0
 10
137.7520242067625
 20
384.7934052727249
 30
0.0
 10
136.9907101932652
 20
383.0944137153985
 30
0.0
 10
134.9018140133649
 20
382.3536387965358
 30
0.0
 10
133.6137639625035
 20
383.9022612138423
 30
0.0
 10
133.8402949437071
 20
384.8729414128038
 30
0.0
 10
133.9563271827846
 20
385.3701369677573
 30
0.0
 11
133.9563271827846
 21
385.3701369677573
 31
0.0
 11
134.1700170801468
 21
385.8384524220218
 31
0.0
 11
135.7746589182243
 21
386.9341125146002
 31
0.0
 11
137.1560198334736
 21
386.3846083189537
 31
0.0
 11
137.5788862293029
 21
384.7924499201671
 31
0.0
 11
136.9304907112509
 21
383.4257313054586
 31
0.0
 11
134.7738737925301
 21
382.8480480964481
 31
0.0
 11
133.8576585459795
 21
383.9047898869821
 31
0.0
 11
133.9563271827846
 21
385.3701369677573
 31
0.0
  0
LINE
  5
F8D
100
AcDbEntity
  8
VHH-025
100
AcDbLine
 10
129.673652
 20
382.757122
 30
0.0
 11
132.8202
 21
382.757122
 31
0.0
  0
LINE
  5
F8E
100
AcDbEntity
  8
VHH-025
100
AcDbLine
 10
132.817655
 20
380.602934
 30
0.0
 11
131.934663
 21
376.405033
 31
0.0
  0
LINE
  5
F8F
100
AcDbEntity
  8
VHH-025
100
AcDbLine
 10
131.907895
 20
380.602934
 30
0.0
 11
132.817655
 21
380.602934
 31
0.0
  0
LINE
  5
F90
100
AcDbEntity
  8
VHH-025
100
AcDbLine
 10
130.544411
 20
386.971731
 30
0.0
 11
129.673652
 21
382.757122
 31
0.0
  0
LINE
  5
F91
100
AcDbEntity
  8
VHH-025
100
AcDbLine
 10
128.448902
 20
386.955023
 30
0.0
 11
127.581594
 21
382.757122
 31
0.0
  0
LINE
  5
F92
100
AcDbEntity
  8
VHH-025
100
AcDbLine
 10
128.322616
 20
380.602934
 30
0.0
 11
129.224729
 21
380.602934
 31
0.0
  0
LINE
  5
F93
100
AcDbEntity
  8
VHH-025
100
AcDbLine
 10
129.224729
 20
380.602934
 30
0.0
 11
129.544494
 21
376.405033
 31
0.0
  0
LINE
  5
F94
100
AcDbEntity
  8
VHH-025
100
AcDbLine
 10
131.907895
 20
380.602934
 30
0.0
 11
129.679121
 21
376.405033
 31
0.0
  0
LINE
  5
F95
100
AcDbEntity
  8
VHH-025
100
AcDbLine
 10
128.322616
 20
380.602934
 30
0.0
 11
127.439624
 21
376.405033
 31
0.0
  0
LINE
  5
F96
100
AcDbEntity
  8
VHH-025
100
AcDbLine
 10
129.544494
 20
376.405033
 30
0.0
 11
129.679121
 21
376.405033
 31
0.0
  0
LINE
  5
F97
100
AcDbEntity
  8
VHH-025
100
AcDbLine
 10
124.52179
 20
380.602934
 30
0.0
 11
124.82704
 21
380.602934
 31
0.0
  0
LINE
  5
F98
100
AcDbEntity
  8
VHH-025
100
AcDbLine
 10
124.82704
 20
380.602934
 30
0.0
 11
125.514904
 21
376.405033
 31
0.0
  0
LINE
  5
F99
100
AcDbEntity
  8
VHH-025
100
AcDbLine
 10
139.820361
 20
386.955023
 30
0.0
 11
141.29638
 21
386.955023
 31
0.0
  0
LINE
  5
F9A
100
AcDbEntity
  8
VHH-025
100
AcDbLine
 10
138.948725
 20
382.757122
 30
0.0
 11
139.820361
 21
386.955023
 31
0.0
  0
LINE
  5
F9B
100
AcDbEntity
  8
VHH-025
100
AcDbLine
 10
139.338295
 20
384.633337
 30
0.0
 11
140.855244
 21
384.633337
 31
0.0
  0
LINE
  5
F9C
100
AcDbEntity
  8
VHH-025
100
AcDbLine
 10
136.544201
 20
380.602934
 30
0.0
 11
137.232066
 21
376.405033
 31
0.0
  0
LINE
  5
F9D
100
AcDbEntity
  8
VHH-025
100
AcDbLine
 10
136.238952
 20
380.602934
 30
0.0
 11
136.544201
 21
380.602934
 31
0.0
  0
LINE
  5
F9E
100
AcDbEntity
  8
VHH-025
100
AcDbLine
 10
133.796553
 20
376.405033
 30
0.0
 11
136.238952
 21
380.602934
 31
0.0
  0
LINE
  5
F9F
100
AcDbEntity
  8
VHH-025
100
AcDbLine
 10
134.262929
 20
377.206622
 30
0.0
 11
137.100718
 21
377.206622
 31
0.0
  0
LINE
  5
FA0
100
AcDbEntity
  8
VHH-025
100
AcDbLine
 10
139.174103
 20
376.37532
 30
0.0
 11
140.051461
 21
380.602934
 31
0.0
  0
LINE
  5
FA1
100
AcDbEntity
  8
VHH-025
100
AcDbLine
 10
137.799142
 20
380.602934
 30
0.0
 11
142.314971
 21
380.602934
 31
0.0
  0
CIRCLE
  5
FA2
100
AcDbEntity
  8
VHH-025
100
AcDbCircle
 10
145.43611
 20
386.461906
 30
0.0
 40
0.724411
  0
CIRCLE
  5
FA3
100
AcDbEntity
  8
VHH-025
100
AcDbCircle
 10
144.488133
 20
380.207773
 30
0.0
 40
0.724411
  0
SPLINE
  5
FA4
100
AcDbEntity
  8
VHH-025
100
AcDbSpline
210
0.0
220
0.0
230
1.0
 70
     8
 71
     3
 72
    13
 73
     9
 74
     7
 42
0.0000001
 43
0.0000001
 44
0.0000000001
 40
0.0
 40
0.0
 40
0.0
 40
0.0
 40
6.026680851531978
 40
11.00810038444467
 40
13.94509459379527
 40
15.52490769264459
 40
17.06497796643979
 40
19.47261726715417
 40
19.47261726715417
 40
19.47261726715417
 40
19.47261726715417
 10
233.5790708563127
 20
357.6885687225367
 30
0.0
 10
233.4754486609527
 20
355.6783244264739
 30
0.0
 10
233.2861763970517
 20
352.0064905342428
 30
0.0
 10
232.3464771097039
 20
347.451856828255
 30
0.0
 10
231.3640585279962
 20
344.4042488626184
 30
0.0
 10
230.2260698887843
 20
342.7277519215171
 30
0.0
 10
228.7931883020267
 20
341.4631596216597
 30
0.0
 10
228.6673810719417
 20
340.0879001610803
 30
0.0
 10
228.5906534338646
 20
339.2491533729808
 30
0.0
 11
233.5790708563127
 21
357.6885687225367
 31
0.0
 11
233.1025981850962
 21
351.6807524903433
 31
0.0
 11
232.095751635612
 21
346.8021460716336
 31
0.0
 11
231.0624015045305
 21
344.0529420973252
 31
0.0
 11
230.161530674608
 21
342.7551589200993
 31
0.0
 11
229.1546841251201
 21
341.5897935379071
 31
0.0
 11
228.5906534338646
 21
339.2491533729808
 31
0.0
  0
SPLINE
  5
FA5
100
AcDbEntity
  8
VHH-025
100
AcDbSpline
210
0.0
220
0.0
230
-1.0
 70
     8
 71
     3
 72
    11
 73
     7
 74
     5
 42
0.0000001
 43
0.0000001
 44
0.0000000001
 40
0.0
 40
0.0
 40
0.0
 40
0.0
 40
2.439326604699221
 40
9.559659611393655
 40
15.47915361148254
 40
15.77071151036895
 40
15.77071151036895
 40
15.77071151036895
 40
15.77071151036895
 10
227.5847764164518
 20
341.9553123135138
 30
0.0
 10
227.4858471981782
 20
342.7625529932145
 30
0.0
 10
227.09814607997
 20
345.9261089137472
 30
0.0
 10
226.9326030423358
 20
351.0905796447759
 30
0.0
 10
226.8898871453766
 20
355.5344828812895
 30
0.0
 10
226.9547899298282
 20
357.6038408261454
 30
0.0
 10
226.9578365827583
 20
357.700980193882
 30
0.0
 11
227.5847764164518
 21
341.9553123135138
 31
0.0
 11
227.306575675042
 21
344.3787228507262
 31
0.0
 11
226.948883492254
 21
351.4900657920134
 31
0.0
 11
226.948883492254
 21
357.4095597921023
 31
0.0
 11
226.9578365827583
 21
357.700980193882
 31
0.0
  0
SPLINE
  5
FA6
100
AcDbEntity
  8
VHH-025
100
AcDbSpline
210
0.0
220
0.0
230
1.0
 70
     8
 71
     3
 72
    17
 73
    13
 74
    11
 42
0.0000001
 43
0.0000001
 44
0.0000000001
 40
0.0
 40
0.0
 40
0.0
 40
0.0
 40
0.5545798661035835
 40
1.653562178450625
 40
2.750923934510548
 40
3.848571212511372
 40
4.674193321130371
 40
5.488636099266088
 40
8.52417256482667
 40
12.84394436806049
 40
16.51294489443536
 40
20.18194542081086
 40
20.18194542081086
 40
20.18194542081086
 40
20.18194542081086
 10
227.5790734631082
 20
378.0853574984494
 30
0.0
 10
227.6069832685428
 20
377.9026698175611
 30
0.0
 10
227.6902004956645
 20
377.357959383502
 30
0.0
 10
227.9245318290775
 20
376.4646237353083
 30
0.0
 10
228.4558669288706
 20
375.4910481188898
 30
0.0
 10
229.1248804193584
 20
374.7299702545463
 30
0.0
 10
229.8423856226982
 20
374.1564970038738
 30
0.0
 10
230.7156114130602
 20
372.8443091403927
 30
0.0
 10
231.5300657738533
 20
370.2215989233558
 30
0.0
 10
232.5824187669015
 20
366.6990277768235
 30
0.0
 10
233.0121709703101
 20
362.8252619162188
 30
0.0
 10
233.3814126717264
 20
360.4084207388919
 30
0.0
 10
233.5660335224347
 20
359.2000001502283
 30
0.0
 11
227.5790734631082
 21
378.0853574984494
 31
0.0
 11
227.6692861542997
 21
377.5381642069742
 31
0.0
 11
227.9665288620726
 21
376.4801429900189
 31
0.0
 11
228.4888345577037
 21
375.5150525362405
 31
0.0
 11
229.2105631693866
 21
374.6880474830632
 31
0.0
 11
229.8140107359049
 21
374.1245735256315
 31
0.0
 11
230.2857934576368
 21
373.4606924351246
 31
0.0
 11
231.3967343353579
 21
370.6357513738002
 31
0.0
 11
232.5076752130789
 21
366.4612767004764
 31
0.0
 11
233.0368543677577
 21
362.8306384253528
 31
0.0
 11
233.5660335224347
 21
359.2000001502283
 31
0.0
  0
SPLINE
  5
FA7
100
AcDbEntity
  8
VHH-025
100
AcDbSpline
210
0.0
220
0.0
230
-1.0
 70
     8
 71
     3
 72
    13
 73
     9
 74
     7
 42
0.0000001
 43
0.0000001
 44
0.0000000001
 40
0.0
 40
0.0
 40
0.0
 40
0.0
 40
5.157331242126769
 40
11.03348381863751
 40
14.61916662718399
 40
16.78242660352368
 40
17.89174384221238
 40
18.5250359770209
 40
18.5250359770209
 40
18.5250359770209
 40
18.5250359770209
 10
226.934635914391
 20
359.2000001114847
 30
0.0
 10
226.8456201336953
 20
360.9169780778863
 30
0.0
 10
226.6551816821397
 20
364.5902439046974
 30
0.0
 10
226.5263977526036
 20
369.4602549082186
 30
0.0
 10
226.505274965272
 20
373.339990012547
 30
0.0
 10
226.7507902485871
 20
375.6167616270001
 30
0.0
 10
227.0288872191926
 20
376.8932364663024
 30
0.0
 10
227.2327041108634
 20
377.4376587941421
 30
0.0
 10
227.3067744311538
 20
377.6355105809388
 30
0.0
 11
226.934635914391
 21
359.2000001114847
 31
0.0
 11
226.6879606321436
 21
364.3514287333473
 31
0.0
 11
226.5317373253965
 21
370.2255042674942
 31
0.0
 11
226.5868148954941
 21
373.8107640439648
 31
0.0
 11
226.8391426389425
 21
375.959257570862
 31
0.0
 11
227.0950952917355
 21
377.0386430328635
 31
0.0
 11
227.3067744311538
 21
377.6355105809388
 31
0.0
  0
SPLINE
  5
FA8
100
AcDbEntity
  8
VHH-025
100
AcDbSpline
210
0.0
220
0.0
230
-1.0
 70
     8
 71
     3
 72
    11
 73
     7
 74
     5
 42
0.0000001
 43
0.0000001
 44
0.0000000001
 40
0.0
 40
0.0
 40
0.0
 40
0.0
 40
0.2876013813401573
 40
0.7434602540700146
 40
1.07180002871572
 40
1.247100552970527
 40
1.247100552970527
 40
1.247100552970527
 40
1.247100552970527
 10
231.4465984512953
 20
359.2000001502292
 30
0.0
 10
231.4599652952136
 20
359.1058239028882
 30
0.0
 10
231.4945190832701
 20
358.8623748052198
 30
0.0
 10
231.5442471356527
 20
358.4895937159035
 30
0.0
 10
231.8073042738352
 20
358.269013302578
 30
0.0
 10
231.967113348887
 20
358.2178191412324
 30
0.0
 10
232.0227376003586
 20
358.2000001475134
 30
0.0
 11
231.4465984512953
 21
359.2000001502292
 31
0.0
 11
231.4866900583565
 21
358.9152068609964
 31
0.0
 11
231.6105195522559
 21
358.4764887643932
 31
0.0
 11
231.8584975215035
 21
358.2612820396325
 31
0.0
 11
232.0227376003586
 21
358.2000001475134
 31
0.0
  0
SPLINE
  5
FA9
100
AcDbEntity
  8
VHH-025
100
AcDbSpline
210
0.0
220
0.0
230
-1.0
 70
     8
 71
     3
 72
    14
 73
    10
 74
     0
 42
0.0000001
 43
0.0000001
 40
0.0
 40
0.0
 40
0.0
 40
0.0
 40
8.543455177382728
 40
32.60806185346405
 40
34.09251365044104
 40
35.82256549595564
 40
37.21403762249804
 40
38.48665207093368
 40
38.6143838058074
 40
38.6143838058074
 40
38.6143838058074
 40
38.6143838058074
 10
122.3961048401652
 20
444.5729801514034
 30
0.0
 10
125.2453913181543
 20
444.5609811172353
 30
0.0
 10
136.1203485554124
 20
444.51518404331
 30
0.0
 10
147.8900770336968
 20
444.4312267889308
 30
0.0
 10
156.5784690613181
 20
444.1590829833203
 30
0.0
 10
158.0299831450647
 20
443.4382751519178
 30
0.0
 10
158.8603885716802
 20
442.1360331845162
 30
0.0
 10
158.8844798196496
 20
441.191564157557
 30
0.0
 10
158.8941542759839
 20
440.7193440493374
 30
0.0
 10
158.8950169921645
 20
440.6762831537053
 30
0.0
  0
ARC
  5
FAA
100
AcDbEntity
  8
VHH-025
100
AcDbCircle
 10
126.687421
 20
-282.949534
 30
0.0
 40
730.516587
100
AcDbArc
 50
87.19827
 51
90.336663
  0
SPLINE
  5
FAB
100
AcDbEntity
  8
VHH-025
100
AcDbSpline
210
0.0
220
0.0
230
-1.0
 70
     8
 71
     3
 72
    14
 73
    10
 74
     0
 42
0.0000001
 43
0.0000001
 40
0.0
 40
0.0
 40
0.0
 40
0.0
 40
8.543455177382728
 40
32.60806185346405
 40
34.09251365044104
 40
35.82256549595564
 40
37.21403762249804
 40
38.48665207093368
 40
38.6143838058074
 40
38.6143838058074
 40
38.6143838058074
 40
38.6143838058074
 10
122.3917384281266
 20
444.5729801514034
 30
0.0
 10
119.5424519501375
 20
444.5609811172353
 30
0.0
 10
108.6674947128776
 20
444.51518404331
 30
0.0
 10
96.89776623459511
 20
444.4312267889308
 30
0.0
 10
88.20937420697191
 20
444.1590829833203
 30
0.0
 10
86.75786012322532
 20
443.4382751519178
 30
0.0
 10
85.92745469660986
 20
442.1360331845162
 30
0.0
 10
85.90336344864045
 20
441.191564157557
 30
0.0
 10
85.89368899230795
 20
440.7193440493374
 30
0.0
 10
85.89282627612556
 20
440.6762831537053
 30
0.0
  0
ARC
  5
FAC
100
AcDbEntity
  8
VHH-025
100
AcDbCircle
 10
118.100423
 20
-282.949534
 30
0.0
 40
730.516587
100
AcDbArc
 50
89.663337
 51
92.80173
  0
SPLINE
  5
FAD
100
AcDbEntity
  8
VHH-025
100
AcDbSpline
210
0.0
220
0.0
230
-1.0
 70
     8
 71
     3
 72
    11
 73
     7
 74
     5
 42
0.0000001
 43
0.0000001
 44
0.0000000001
 40
0.0
 40
0.0
 40
0.0
 40
0.0
 40
0.8012084873059352
 40
1.355387018408663
 40
1.955784421317553
 40
2.570156969731709
 40
2.570156969731709
 40
2.570156969731709
 40
2.570156969731709
 10
66.62829385994155
 20
424.9781188038642
 30
0.0
 10
66.89847385982777
 20
424.958203302106
 30
0.0
 10
67.35553150497425
 20
424.9245126797829
 30
0.0
 10
67.9314965233236
 20
424.5786628649512
 30
0.0
 10
68.27164618262061
 20
424.0618438529625
 30
0.0
 10
68.294445840406
 20
423.6518598500721
 30
0.0
 10
68.30597681698418
 20
423.4445095477449
 30
0.0
 11
66.62829385994155
 21
424.9781188038642
 31
0.0
 11
67.41859973585452
 21
424.8463930940406
 31
0.0
 11
67.89069943941104
 21
424.5561591982996
 31
0.0
 11
68.21746755976892
 21
424.0524731483264
 31
0.0
 11
68.30597681698418
 21
423.4445095477449
 31
0.0
  0
SPLINE
  5
FAE
100
AcDbEntity
  8
VHH-025
100
AcDbSpline
210
0.0
220
0.0
230
-1.0
 70
     8
 71
     3
 72
    20
 73
    16
 74
     0
 42
0.0000001
 43
0.0000001
 40
0.0
 40
0.0
 40
0.0
 40
0.0
 40
0.411372432094715
 40
0.411372432094715
 40
0.7549641539760199
 40
0.7549641539760199
 40
1.460265566936419
 40
1.460265566936419
 40
1.780008105651267
 40
1.780008105651267
 40
2.128014443002301
 40
2.128014443002301
 40
2.476020780353334
 40
2.476020780353334
 40
2.570156969732271
 40
2.570156969732271
 40
2.570156969732271
 40
2.570156969732271
 10
66.57683508659829
 20
424.2800127985574
 30
0.0
 10
66.715556287656
 20
424.2697873846682
 30
0.0
 10
66.83775553094893
 20
424.2601437260473
 30
0.0
 10
67.02543350019732
 20
424.2325845736504
 30
0.0
 10
67.09647289670283
 20
424.216561694001
 30
0.0
 10
67.27314304547326
 20
424.1578439158929
 30
0.0
 10
67.37025891788107
 20
424.0945793828241
 30
0.0
 10
67.47691226585266
 20
423.9755918343953
 30
0.0
 10
67.50551295684272
 20
423.933953764551
 30
0.0
 10
67.54940313743464
 20
423.848929426057
 30
0.0
 10
67.56190665457507
 20
423.8138866018771
 30
0.0
 10
67.58652244617223
 20
423.689074360699
 30
0.0
 10
67.59522612916225
 20
423.6031906175976
 30
0.0
 10
67.60359851644352
 20
423.4677466571965
 30
0.0
 10
67.60528990627972
 20
423.4374127361116
 30
0.0
 10
67.60705672056428
 20
423.4056418385052
 30
0.0
  0
LINE
  5
FAF
100
AcDbEntity
  8
VHH-025
100
AcDbLine
 10
61.685993
 20
424.046433
 30
0.0
 11
66.660965
 21
424.278882
 31
0.0
  0
LINE
  5
FB0
100
AcDbEntity
  8
VHH-025
100
AcDbLine
 10
115.891738
 20
407.001541
 30
0.0
 11
128.891738
 21
407.001541
 31
0.0
  0
LINE
  5
FB1
100
AcDbEntity
  8
VHH-025
100
AcDbLine
 10
115.891738
 20
418.501541
 30
0.0
 11
128.891738
 21
418.501541
 31
0.0
  0
LINE
  5
FB2
100
AcDbEntity
  8
VHH-025
100
AcDbLine
 10
123.442227
 20
409.354619
 30
0.0
 11
126.154284
 21
409.354619
 31
0.0
  0
LINE
  5
FB3
100
AcDbEntity
  8
VHH-025
100
AcDbLine
 10
124.436045
 20
415.901023
 30
0.0
 11
123.90793
 21
413.260446
 31
0.0
  0
LINE
  5
FB4
100
AcDbEntity
  8
VHH-025
100
AcDbLine
 10
123.888518
 20
412.751541
 30
0.0
 11
127.011147
 21
412.757697
 31
0.0
  0
ARC
  5
FB5
100
AcDbEntity
  8
VHH-025
100
AcDbCircle
 10
115.891738
 20
407.751541
 30
0.0
 40
0.75
100
AcDbArc
 50
180.0
 51
270.0
  0
LINE
  5
FB6
100
AcDbEntity
  8
VHH-025
100
AcDbLine
 10
115.141738
 20
407.751541
 30
0.0
 11
115.141738
 21
417.751541
 31
0.0
  0
ARC
  5
FB7
100
AcDbEntity
  8
VHH-025
100
AcDbCircle
 10
115.891738
 20
417.751541
 30
0.0
 40
0.75
100
AcDbArc
 50
90.0
 51
180.0
  0
CIRCLE
  5
FB8
100
AcDbEntity
  8
VHH-025
100
AcDbCircle
 10
102.391738
 20
412.751541
 30
0.0
 40
0.25
  0
LINE
  5
FB9
100
AcDbEntity
  8
VHH-025
100
AcDbLine
 10
117.242227
 20
409.354619
 30
0.0
 11
119.954284
 21
409.354619
 31
0.0
  0
CIRCLE
  5
FBA
100
AcDbEntity
  8
VHH-025
100
AcDbCircle
 10
121.524775
 20
409.354619
 30
0.0
 40
0.025
  0
LINE
  5
FBB
100
AcDbEntity
  8
VHH-025
100
AcDbLine
 10
118.236045
 20
415.901023
 30
0.0
 11
117.70793
 21
413.260446
 31
0.0
  0
LINE
  5
FBC
100
AcDbEntity
  8
VHH-025
100
AcDbLine
 10
120.982396
 20
413.202091
 30
0.0
 11
121.511034
 21
415.845282
 31
0.0
  0
LINE
  5
FBD
100
AcDbEntity
  8
VHH-025
100
AcDbLine
 10
117.51727
 20
412.307147
 30
0.0
 11
116.988631
 21
409.663956
 31
0.0
  0
LINE
  5
FBE
100
AcDbEntity
  8
VHH-025
100
AcDbLine
 10
120.26362
 20
409.608215
 30
0.0
 11
120.791736
 21
412.248792
 31
0.0
  0
LINE
  5
FBF
100
AcDbEntity
  8
VHH-025
100
AcDbLine
 10
117.688518
 20
412.751541
 30
0.0
 11
120.811147
 21
412.757697
 31
0.0
  0
LINE
  5
FC0
100
AcDbEntity
  8
VHH-025
100
AcDbLine
 10
121.257438
 20
416.154619
 30
0.0
 11
118.545382
 21
416.154619
 31
0.0
  0
LINE
  5
FC1
100
AcDbEntity
  8
VHH-025
100
AcDbLine
 10
123.71727
 20
412.307147
 30
0.0
 11
123.188631
 21
409.663956
 31
0.0
  0
CIRCLE
  5
FC2
100
AcDbEntity
  8
VHH-025
100
AcDbCircle
 10
64.581312
 20
413.754525
 30
0.0
 40
2.21318
  0
CIRCLE
  5
FC3
100
AcDbEntity
  8
VHH-025
100
AcDbCircle
 10
64.581312
 20
413.754525
 30
0.0
 40
1.51318
  0
ARC
  5
FC4
100
AcDbEntity
  8
VHH-025
100
AcDbCircle
 10
128.891738
 20
407.751541
 30
0.0
 40
0.75
100
AcDbArc
 50
270.0
 51
0.0
  0
LINE
  5
FC5
100
AcDbEntity
  8
VHH-025
100
AcDbLine
 10
129.641738
 20
407.751541
 30
0.0
 11
129.641738
 21
417.751541
 31
0.0
  0
CIRCLE
  5
FC6
100
AcDbEntity
  8
VHH-025
100
AcDbCircle
 10
127.724775
 20
409.354619
 30
0.0
 40
0.025
  0
LINE
  5
FC7
100
AcDbEntity
  8
VHH-025
100
AcDbLine
 10
127.182396
 20
413.202091
 30
0.0
 11
127.711034
 21
415.845282
 31
0.0
  0
LINE
  5
FC8
100
AcDbEntity
  8
VHH-025
100
AcDbLine
 10
126.46362
 20
409.608215
 30
0.0
 11
126.991736
 21
412.248792
 31
0.0
  0
LINE
  5
FC9
100
AcDbEntity
  8
VHH-025
100
AcDbLine
 10
127.457438
 20
416.154619
 30
0.0
 11
124.745382
 21
416.154619
 31
0.0
  0
ARC
  5
FCA
100
AcDbEntity
  8
VHH-025
100
AcDbCircle
 10
128.891738
 20
417.751541
 30
0.0
 40
0.75
100
AcDbArc
 50
0.0
 51
90.0
  0
CIRCLE
  5
FCB
100
AcDbEntity
  8
VHH-025
100
AcDbCircle
 10
142.391738
 20
412.751541
 30
0.0
 40
0.25
  0
SPLINE
  5
FCC
100
AcDbEntity
  8
VHH-025
100
AcDbSpline
210
0.0
220
0.0
230
-1.0
 70
     8
 71
     3
 72
    15
 73
    11
 74
     9
 42
0.0000001
 43
0.0000001
 44
0.0000000001
 40
0.0
 40
0.0
 40
0.0
 40
0.0
 40
8.727930916723018
 40
16.25763323255779
 40
20.36216076943284
 40
21.62307303412715
 40
23.69549543386525
 40
25.38624445710581
 40
45.72281463409026
 40
79.43205808847173
 40
79.43205808847173
 40
79.43205808847173
 40
79.43205808847173
 10
227.5319426058231
 20
421.700000154682
 30
0.0
 10
226.8331640487608
 20
424.5165902787386
 30
0.0
 10
225.5315399181519
 20
429.7630902384961
 30
0.0
 10
223.6014529611504
 20
436.3571665177068
 30
0.0
 10
221.295034283167
 20
439.981205837905
 30
0.0
 10
219.7567804642341
 20
441.982460510472
 30
0.0
 10
218.067032890991
 20
442.5205618189426
 30
0.0
 10
210.1310101719509
 20
443.3052661239022
 30
0.0
 10
191.570087682312
 20
445.2216375837607
 30
0.0
 10
173.6020013686545
 20
446.2672750766846
 30
0.0
 10
162.3950168631072
 20
446.9194560033038
 30
0.0
 11
227.5319426058231
 21
421.700000154682
 31
0.0
 11
225.3666087170422
 21
430.1550641542735
 31
0.0
 11
222.8670866218599
 21
437.2577964637994
 31
0.0
 11
220.6986513817337
 21
440.7427691911452
 31
0.0
 11
219.8628371091654
 21
441.6868635937489
 31
0.0
 11
217.9466887476755
 21
442.4763634732271
 31
0.0
 11
216.2705801097909
 21
442.6983817013015
 31
0.0
 11
196.0275621081255
 21
444.6467935539812
 31
0.0
 11
162.3950168631072
 21
446.9194560033038
 31
0.0
  0
LINE
  5
FCD
100
AcDbEntity
  8
VHH-025
100
AcDbLine
 10
151.391738
 20
431.36479
 30
0.0
 11
153.891738
 21
435.694917
 31
0.0
  0
LINE
  5
FCE
100
AcDbEntity
  8
VHH-025
100
AcDbLine
 10
148.891738
 20
435.694917
 30
0.0
 11
151.391738
 21
431.36479
 31
0.0
  0
LINE
  5
FCF
100
AcDbEntity
  8
VHH-025
100
AcDbLine
 10
148.891738
 20
435.694917
 30
0.0
 11
153.891738
 21
435.694917
 31
0.0
  0
ENDSEC
  0
SECTION
  2
OBJECTS
  0
DICTIONARY
  5
C
100
AcDbDictionary
  3
ACAD_GROUP
350
D
  3
ACAD_MLINESTYLE
350
E
  3
AMACAD
350
975
  0
DICTIONARY
  5
D
102
{ACAD_REACTORS
330
C
102
}
100
AcDbDictionary
  0
DICTIONARY
  5
E
102
{ACAD_REACTORS
330
C
102
}
100
AcDbDictionary
  3
STANDARD
350
1B
  0
DICTIONARY
  5
975
102
{ACAD_REACTORS
330
C
102
}
100
AcDbDictionary
  3
AM_LOADER
350
976
  0
MLINESTYLE
  5
1B
102
{ACAD_REACTORS
330
E
102
}
100
AcDbMlineStyle
  2
STANDARD
 70
     0
  3

 62
     0
 51
90.0
 52
90.0
 71
     2
 49
0.5
 62
   256
  6
BYLAYER
 49
-0.5
 62
   256
  6
BYLAYER
  0
AMLOADER
  5
976
102
{ACAD_REACTORS
330
975
102
}
100
AMLoader
 90
        1
 70
     3
 70
     0
 70
   921
 70
   861
280
     0
  0
ENDSEC
  0
EOF
